Song name
# A B C D E F G H I J K L M N O P Q R S T U V W X Y Z

Kt Tunstall - Silent Sea tab

song      : silent sea
artist    : kt tunstall
tabbed by : oneshotnothing

standard tuning


INTRO - subdivided into triplets
I'm pretty sure she plays at least the high e as a harmonic

e-|12----------------12----------------|12----------------12----------------|
b-|---------12----------------12-------|---------12----------------12-------|
g-|------12-------12-------12-------12-|------12-------12-------12----12----|
d-|---------11----------------11-------|---------11----------------11-------|
a-|11----------------11----------------|11----------------11----------------|
E-|------------------------------------|------------------------------------|
   ^  *  *  ^  *  *  ^  *  *  ^  *  *   ^  *  *  ^  *  *  ^  *  *  ^  *  *  
   1        2        3        4         1        2        3        4        


e-|12----------------12----------------|12----------------12----------------|
b-|---------12----------------12-------|---------12----------------12-------|
g-|------12-------12-------12-------12-|------12-------12-------12----12----|
d-|---------11----------------11-------|---------11----------------11-------|
a-|10----------------10----------------|10----------------10----------------|
E-|------------------------------------|------------------------------------|
   ^  *  *  ^  *  *  ^  *  *  ^  *  *   ^  *  *  ^  *  *  ^  *  *  ^  *  *  
   1        2        3        4         1        2        3        4        


e-|12----------------12----------------|12----------------12----------------|
b-|---------12----------------12-------|---------12----------------12-------|
g-|------12-------12-------12-------12-|------12-------12-------12----12----|
d-|---------11----------------11-------|---------11----------------11-------|
a-|11----------------11----------------|11----------------11----------------|
E-|0-----------------------------------|------------------------------------|
   ^  *  *  ^  *  *  ^  *  *  ^  *  *   ^  *  *  ^  *  *  ^  *  *  ^  *  *  
   1        2        3        4         1        2        3        4        


e-|12----------------12----------------|12----------------------------------|
b-|---------12----------------12-------|------12----------------------------|
g-|------12-------12-------12-------12-|------------12----------------------|
d-|---------11----------------11-------|------------------11----------------|
a-|10----------------10----------------|10----------------------------------|
E-|------------------------------------|------------------------------------|
   ^  *  *  ^  *  *  ^  *  *  ^  *  *   ^  *  *  ^  *  *  ^  *  *  ^  *  *  
   1        2        3        4         1        2        3        4        


VERSE - subdivided into two triplets, two doublets
Repeat as necessary

e-|0-----------------0-----------|8-----------------------------|
b-|---------0--------------------|---------8--------------------|
g-|------0--------0--------------|------0--------0--------------|
d-|------------------------------|---------0--------------0-----|
a-|9--------7--------5-----7-----|7-----------------------------|
E-|0-----------------------------|8-----------------8-----------|
   ^  *  *  ^  *  *  ^  *  ^  *  |^  *  *  ^  *  *  ^  *  ^  *  |
   1        2        3     4      1        2        3     4      


e-|3-----------------------------|2-----------------------------|
b-|---------3--------------------|---------0--------------------|
g-|------0--------0--------------|------2--------2--------------|
d-|---------0--------------0-----|---------1--------------0-----|
a-|------------------0-h2--------|2-----------------0-h2--------|
E-|3-----------------------------|------------------------------|
   ^  *  *  ^  *  *  ^  *  ^  *  |^  *  *  ^  *  *  ^  *  ^  *  |
   1        2        3     4      1        2        3     4      


CHROUS - subdivided into triplets

e-|0-----------------0-----------------|2----------------2------------------|
b-|---------0-----------------0--------|---------3-----------------3--------|
g-|------0--------0--------0--------0--|------0--------0--------0--------0--|
d-|---------2-----------------2--------|---------0-----------------0--------|
a-|3-----------------3-----------------|2----------------2------------------|
E-|------------------------------------|------------------------------------|
   ^  *  *  ^  *  *  ^  *  *  ^  *  *   ^  *  *  ^  *  *  ^  *  *  ^  *  *  
   1        2        3        4         1        2        3        4        


e-|1-----------------1-----------------|0----------------0------------------|
b-|---------1-----------------1--------|---------0-----------------0--------|
g-|------0--------0--------0--------0--|------0--------0--------0--------0--|
d-|---------0-----------------0--------|---------2-----------------2--------|
a-|1-----------------1-----------------|0----------------0------------------|
E-|------------------------------------|------------------------------------|
   ^  *  *  ^  *  *  ^  *  *  ^  *  *   ^  *  *  ^  *  *  ^  *  *  ^  *  *  
   1        2        3        4         1        2        3        4        


e-|0-----------------0-----------------|2----------------2------------------|
b-|---------0-----------------0--------|---------3-----------------3--------|
g-|------0--------0--------0--------0--|------0--------0--------0--------0--|
d-|---------2-----------------2--------|---------0-----------------0--------|
a-|3-----------------3-----------------|2----------------2------------------|
E-|------------------------------------|------------------------------------|
   ^  *  *  ^  *  *  ^  *  *  ^  *  *   ^  *  *  ^  *  *  ^  *  *  ^  *  *  
   1        2        3        4         1        2        3        4        


e-|1-----------------1-----------------|0-----------------------------------|
b-|---------1-----------------1--------|0-----------------------------------|
g-|------0--------0--------0--------0--|0-----------------------------------|
d-|---------0-----------------0--------|2-----------------------------------|
a-|1-----------------1-----------------|0-----------------------------------|
E-|------------------------------------|------------------------------------|
   ^  *  *  ^  *  *  ^  *  *  ^  *  *   ^  *  *  ^  *  *  ^  *  *  ^  *  *  
   1        2        3        4         1        2        3        4        
Tap to rate this tab
 
# A B C D E F G H I J K L M N O P Q R S T U V W X Y Z