Kt Tunstall - Still A Weirdo tab

Song: (Still a) Weirdo
Artist: KT Tunstall
Album: Tiger Suit (2010)
Tuning: Standard
Key: C major
Tabbed by: Rachel C

http://www.youtube.com/watch?v=GmSQgHWSAls&feature=channel
-this song is the first UK single of Kt's album "Tiger Suit"-

INTRO:
   Fmajor          Gadd2          Am7          C     C/B
e|--------------------------------------------------------------------|
B|-------1--------------0---0h1-------1-------------------1-----------|
G|-----2---2----------2---2---------0---0----------0-----0------------|
D|---3-------3------0---3---------2---2---2------0-----0--------------|
A|------------------------------0-----------0--3-----2----------------|
E|-1-----------1--3---------------------------------------------------| x3
   Fmajor          Gadd2        C         
e|-------------------------------------------------------------------------|
B|-------1--------------0---0h1-------1--------------1---------------------|
G|-----2---2----------2---2---------0---0---0------0---0---0---------------|
D|---3-------3------0---3---------2---2---2------2---2---2-----------------|
A|------------------------------3-------------3----------------------------|
E|-1-----------1--3--------------------------------------------------------|

VERSE
   Am7                              Dmajor       D minor
e|--------------------------------------2-------------1------|
B|-------1--------------1-------------3---3---3-----3---3---3|
G|-----0---0---0------0---0----0----2-------2-----2-------2--|
D|---2---2---2-----2----2----2----0-------------0------------|
A|-0-------------0-------------------------------------------|
E|-----------------------------------------------------------|
     
     
e|-----------------------------------------------------------|
B|-------1--------------0-------------1-------------0-----0h1|
G|-----0---0---0------1---1---1-----2---2-2------2-----2-----|
D|---2---2---2------2-------2-----3------3------0---3--------|
A|-3---------------------------------------------------------|
E|----------------0-------------1-------------3--------------|

   Am7                              Dmajor       D minor
e|--------------------------------------2-------------1------|
B|-------1--------------1-------------3---3---3-----3---3---3|
G|-----0---0---0------0---0----0----2-------2-----2-------2--|
D|---2---2---2-----2----2----2----0-------------0------------|
A|-0-------------0-------------------------------------------|
E|-----------------------------------------------------------|

  C               E              Am7                Am7/G
e|-----------------------------------------------------------|
B|-------1--------------0--------------1--------------------1|
G|-----0---0---0------1---1---1------0---0---0-----0------0--|
D|---2---2---2------2-------2------2---2---2-----2------2----|
A|-3-----------------------------0-------------0-------------|
E|----------------0----------------------------------3-------|

PRE CHORUS: 
   
   D minor                     C            G 
e|-------1-------------1-------------------------------|
B|-----3---3---3-----3---3---3-------1---------2--0----|
G|---2-------2-----2-------2-------0---0-----0--0--0--0|
D|-0-------------0---------------2---2---2----------0--| x2
A|-----------------------------3-----------------------|
E|-----------------------------------------3------3----|

CHORUS:
   Fmajor          Gadd2          Am7          C     C/B
e|--------------------------------------------------------------------|
B|-------1--------------0---0h1-------1-------------------1-----------|
G|-----2---2----------2---2---------0---0----------0-----0------------|
D|---3-------3------0---3---------2---2---2------0-----0--------------|
A|------------------------------0-----------0--3-----2----------------|
E|-1-----------1--3---------------------------------------------------| x3

"...after all these years..."
   Fmajor          Gadd2                 
e|------------------------------|
B|-------1--------------0---0h1-|
G|-----2---2----------2---2-----|
D|---3-------3------0---3-------|
A|------------------------------|
E|-1-----------1--3-------------|

After Chorus:
   C                           G/C 
e|--------------------------------------------------------|
B|------1--------------1-------------0-------------0------|
G|----0---0---0------0---0---0-----0---0---0-----0---0---0|
D|--2---2---2------2---2---2-----0---0---0-----0---0---0--| x2
A|3-------------3--------------3-------------3------------|
E|--------------------------------------------------------|


VERSE
   Am7                              Dmajor       D minor
e|--------------------------------------2-------------1------|
B|-------1--------------1-------------3---3---3-----3---3---3|
G|-----0---0---0------0---0----0----2-------2-----2-------2--|
D|---2---2---2-----2----2----2----0-------------0------------|
A|-0-------------0-------------------------------------------|
E|-----------------------------------------------------------|
     
    C              E            F              G 
e|-----------------------------------------------------------|
B|-------1--------------0-------------1-------------0-----0h1|
G|-----0---0---0------1---1---1-----2---2-2------2-----2-----|
D|---2---2---2------2-------2-----3------3------0---3--------|
A|-3---------------------------------------------------------|
E|----------------0-------------1-------------3--------------|

   Am7                              Dmajor       D minor
e|--------------------------------------2-------------1------|
B|-------1--------------1-------------3---3---3-----3---3---3|
G|-----0---0---0------0---0----0----2-------2-----2-------2--|
D|---2---2---2-----2----2----2----0-------------0------------|
A|-0-------------0-------------------------------------------|
E|-----------------------------------------------------------|

  C               E              Am7                Am7/G
e|-----------------------------------------------------------|
B|-------1--------------0--------------1--------------------1|
G|-----0---0---0------1---1---1------0---0---0-----0------0--|
D|---2---2---2------2-------2------2---2---2-----2------2----|
A|-3-----------------------------0-------------0-------------|
E|----------------0----------------------------------3-------|

PRE CHORUS: 
   
   D minor                     C            G 
e|-------1-------------1-------------------------------|
B|-----3---3---3-----3---3---3-------1---------2--0----|
G|---2-------2-----2-------2-------0---0-----0--0--0--0|
D|-0-------------0---------------2---2---2----------0--| x2
A|-----------------------------3-----------------------|
E|-----------------------------------------3------3----|

EXTENDED CHORUS:
   Fmajor          Gadd2          Am7          C     C/B
e|--------------------------------------------------------------------|
B|-------1--------------0---0h1-------1-------------------1-----------|
G|-----2---2----------2---2---------0---0----------0-----0------------|
D|---3-------3------0---3---------2---2---2------0-----0--------------|
A|------------------------------0-----------0--3-----2----------------|
E|-1-----------1--3---------------------------------------------------| x3

   Fmajor          Gadd2        C         
e|---------------------------------------------------------------------|
B|-------1--------------0---0h1-------1--------------1-----------------|
G|-----2---2----------2---2---------0---0---0------0---0---0-----------|
D|---3-------3------0---3---------2---2---2------2---2---2-------------|
A|------------------------------3-------------3------------------------|
E|-1-----------1--3----------------------------------------------------|

   Fmajor          Gadd2          Am7          C     C/B
e|--------------------------------------------------------------------|
B|-------1--------------0---0h1-------1-------------------1-----------|
G|-----2---2----------2---2---------0---0----------0-----0------------|
D|---3-------3------0---3---------2---2---2------0-----0--------------|
A|------------------------------0-----------0--3-----2----------------|
E|-1-----------1--3---------------------------------------------------|

   Fmajor          Gadd2        C         
e|---------------------------------------------------------------------|
B|-------1--------------0---0h1-------1--------------1-----------------|
G|-----2---2----------2---2---------0---0---0------0---0---0-----------|
D|---3-------3------0---3---------2---2---2------2---2---0-------------|
A|------------------------------3-------------3------------------------|
E|-1-----------1--3----------------------------------------------------|

INSTRUMENTAL BREAK (whistle part)

    B minor                      E                           D
e|-----------------------------------------------------------------2-----|
B|-------2-------------2----------------0-----------0------------3---3--3|
G|-----4---4---4-----4----4---4-------1---1-------1---1---1----2------2--|
D|---4-------4-----4---4----4-------2-------2---2-------2----0-----------|
A|-2-------------2-------------------------------------------------------|
E|-------------------------------0------------0--------------------------|

  F#             G            A  
e|----------------------------------------|
B|-------2------------0------------0------|
G|-----3--3---3-----0--0---0-----2---2---2|
D|---4------4-----0------0-----2-------2--|
A|---------------------------0------------|
E|-2-------------3------------------------|

    B minor                      E                           D
e|---------------------0-------------------------------------------2-----|
B|-------2-------------2----------------0-----------0------------3---3--3|
G|-----4---4---4-----4----4---4-------1---1-------1---1---1----2------2--|
D|---4-------4-----4---4----4-------2-------2---2-------2----0-----------|
A|-2-------------2-------------------------------------------------------|
E|-------------------------------0------------0--------------------------|

  F#             G                         Gadd4       G
e|----------------------------------------------------------------|
B|-------2------------0-----------0--------1----1-----0-----0-----|
G|-----3--3---3-----0--0---0----0---0---0-----0---0-------0---0---|
D|---4------4-----0------0----0-------0-----0-------0---0-------0-|
A|----------------------------------------------------------------|
E|-2-------------3-----------3-------------3----------3-----------|

Extended CHORUS and OUTRO:
   Fmajor          Gadd2          Am7          C     C/B
e|--------------------------------------------------------------------|
B|-------1--------------0---0h1-------1-------------------1-----------|
G|-----2---2----------2---2---------0---0----------0-----0------------|
D|---3-------3------0---3---------2---2---2------0-----0--------------|
A|------------------------------0-----------0--3-----2----------------|
E|-1-----------1--3---------------------------------------------------| x3

   Fmajor          Gadd2        C         
e|---------------------------------------------------------------------|
B|-------1--------------0---0h1-------1--------------1-----------------|
G|-----2---2----------2---2---------0---0---0------0---0---0-----------|
D|---3-------3------0---3---------2---2---2------2---2---2-------------|
A|------------------------------3-------------3------------------------|
E|-1-----------1--3----------------------------------------------------|

   Fmajor          Gadd2          Am7          C     C/B
e|--------------------------------------------------------------------|
B|-------1--------------0---0h1-------1-------------------1-----------|
G|-----2---2----------2---2---------0---0----------0-----0------------|
D|---3-------3------0---3---------2---2---2------0-----0--------------|
A|------------------------------0-----------0--3-----2----------------|
E|-1-----------1--3---------------------------------------------------| x3

   Fmajor          Gadd2        C         
e|---------------------------------------------------------------------|
B|-------1--------------0---0h1-------1--------------1-----------------|
G|-----2---2----------2---2---------0---0---0------0---0---0-----------|
D|---3-------3------0---3---------2---2---2------2---2---2-------------|
A|------------------------------3-------------3------------------------|
E|-1-----------1--3----------------------------------------------------| x2

   Fmajor          Gadd2        C         
e|--------------------------------|
B|-------1--------------0---0h1-1-|
G|-----2---2----------2---2-----0-|
D|---3-------3------0---3-------2-|
A|------------------------------3-|
E|-1-----------1--3---------------|
Tap to rate this tab
 
# A B C D E F G H I J K L M N O P Q R S T U V W X Y Z