Song name
# A B C D E F G H I J K L M N O P Q R S T U V W X Y Z

Kt Tunstall - Leather tab

Leather
Katie Tunstall
Tracks In July (2000)

Standard Tuning

E|--x--x--x--x--x---x--x--x--x--x--x--x--x--x--x--x--|
B|--x--x--x--x--x---x--x--x--x--x--x--x--x--x--x--x--|
G|--x--x--x--x--x---x--x--x--x--x--x--x--x--x--x--x--|
D|--x--x--x--x--x---x--x--x--x--x--x--x--x--x--x--x--|
A|--x--x--x--x--x---x--x--x--x--x--x--x--x--x--x--x--|
E|--3--3--3--3--3b\-6--6--6--6--6--5--5--5--5--4--4b-|

E|--x--x--x--x--4--------|
B|--3\-6/-5/-4---4-------|
G|--x--x--x--x----0------|
D|--x--x--x--x-----0-----|
A|--x--x--x--x------0----|
E|--3\-6/-5/-4-------4b--|

Verse 1:
(PAUSE)----(START STRUMMING)
You twist my time
    G
E|--3---6---5---4---|
B|--3---6---5---4---|
G|--0---0---0---0---|
D|--0---0---0---0---|
A|--0---0---0---0---|
E|--3---6---5---4---|

And I donít want you to
ĎCause I was happy at the volume I was at
Before you turn me up
And Iím oh so loud
That Iím deafening myself
Above the buzzing of the crowd

You are so cool
Then my temperature must be a little bit chilly
ĎCause you melt me every time
And I look your way
And you send me rocketing high
Because you donít notice my eyes
          G
And Iím armored with nothing
         C
but the space between you and I
                 F             D
Iím in amour by you........by you

Last night in slumber
I met you walking upon some astroplane circumstance
And your breath upon my back convinced me that
I would pay to play again

And Iím armored with nothing
but the space between you and I
Iím in amour by you........by you 
Tap to rate this tab
# A B C D E F G H I J K L M N O P Q R S T U V W X Y Z