Song name
# A B C D E F G H I J K L M N O P Q R S T U V W X Y Z

Kt Tunstall - How You Kill Me tab

I've only figured out the verse and intro for this song but it's beter than nothing. :)

-------------------------------------------------------------------------------
                             HOW YOU KILL ME - KT Tustall
-------------------------------------------------------------------------------
Tabbed by:joolet

INTRO:
e|---------------------------------------------------------------------------|
B|---------------------------------------------------------------------------|
G|---------------------------------------------------------------------------|
D|----0----------------0-----------------1----------------1------------------|
A|----------4--2--------------4--2-------------4--2-------------4--2---------|
E|--0-----0----------0------0----------0-----0----------0-----0--------------|

VERSE:
e|---------------------------------------------------------------------------| 
B|---------------------------------------------------------------------------|
G|---------------------------------------1----------------1------------------|
D|----0----------------0-----------------------4--2-------------4--2---------|
A|----------4--2--------------4--2-----0-----0----------0-----0--------------|
E|--0-----0----------0------0------------------------------------------------|

e|---------------------------------------------------------------------------| 
B|---------------------------------------------------------------------------|
G|---------------------------------------1----------------1--------1---------|
D|----0----------------0-----------------------4--2-------------4-----4--2---|
A|----------4--2--------------4--2-----0-----0----------0-----0--------------|
E|--0-----0----------0------0------------------------------------------------|

e|------------------------------------|  X2
B|------------------------------------|
G|------------------------------------|
D|----0----------------0--------------|
A|----------4--2--------------4--2----|
E|--0-----0----------0------0---------|

************************************

| /   slide up
| \   slide down
| h   hammer-on
| p   pull-off
| ~   vibrato
| +   harmonic
| x   Mute note
| b   Bend
| pb  Pre-bend
| br  Bend release
| pbr Pre-bend release
| brb Bend release bend

************************************
Tap to rate this tab
# A B C D E F G H I J K L M N O P Q R S T U V W X Y Z