Song name
# A B C D E F G H I J K L M N O P Q R S T U V W X Y Z

Kt Tunstall - Waiting On The Heart tab

Live acoustic version


Intro
    Am                                 D7/G
E|---0---0---0-----0---0------0---0-----0----0---0---0---0---0---0---0---0--|
B|---1---1---1-----1---1------1---1-----1----1---1---0---0---1---1---1---1--|
G|---2---2---2-----2---2------2---2-----2----2---2---2---2---2---2---2---2--|
D|-----2-------0/2--------0/2-------0/2--------0-------0-------0-------0----|
A|-0-------0---------0----------0-------------------------------------------|
E|-----------------------------------------3-------3-------3-------3--------|

Esus4                  Fmaj7
---0-----0---0-----0----0---0---0---0---0---0---0---0---|
---0-----0---0-----0----1---1---1---1---1---1---1---1---|
---2-----2---2-----2----2---2---2---2---0---0---2---2---|
--------------------------3-------3-------3-------3-----|
-----0/2-------0/2----3-------3-------3-------3---------|
-0---------0--------------------------------------------|

Verses/Choruses

    Am                                 D7/G
E|---0---0---0-----0---0------0---0-----0----0---0---0---0---0---0---0---0--|
B|---1---1---1-----1---1------1---1-----1----1---1---0---0---1---1---1---1--|
G|---2---2---2-----2---2------2---2-----2----2---2---2---2---2---2---2---2--|
D|-----2-------0/2--------0/2-------0/2--------0-------0-------0-------0----|
A|-0-------0---------0----------0-------------------------------------------|
E|-----------------------------------------3-------3-------3-------3--------|

Esus4                  Fmaj7
---0-----0---0-----0----0---0---0---0---0---0---0---0---|
---0-----0---0-----0----1---1---1---1---1---1---1---1---|
---2-----2---2-----2----2---2---2---2---0---0---2---2---|
--------------------------3-------3-------3-------3-----|
-----0/2-------0/2----3-------3-------3-------3---------|
-0---------0--------------------------------------------|

    Am                                 D7/G
E|---0---0---0-----0---0------0---0-----0----0---0---0---0---0---0---0---0--|
B|---1---1---1-----1---1------1---1-----1----1---1---0---0---1---1---1---1--|
G|---2---2---2-----2---2------2---2-----2----2---2---2---2---2---2---2---2--|
D|-----2-------0/2--------0/2-------0/2--------0-------0-------0-------0----|
A|-0-------0---------0----------0-------------------------------------------|
E|-----------------------------------------3-------3-------3-------3--------|

Esus4                Fmaj7            Esus4               Fmaj7
---0-----0---0-----0----0---0---0---0---0-----0---0-----0---0---0---0---0--|
---0-----0---0-----0----1---1---1---1---0-----0---0-----0---1---1---1---1--|
---2-----2---2-----2----2---2---2---2---2-----2---2-----2---2---2---2---2--|
--------------------------3-------3---------------------------3-------3----|
-----0/2-------0/2----3-------3-----------0/2-------0/2---3-------3--------|
-0---------0--------------------------0---------0--------------------------|



...Her voice, in her voice...
---2---2---2---2---2---2---2---2---4---4---4---4---4---4---4---4-|
---1---1---1---1---1---1---1---1---3---3---3---3---3---3---3---3-|
---2---2---2---2---2---2---2---2---4---4---4---4---4---4---4---4-|
-0---0---0---0---0---0---0---0---0---0---0---0---0---0---0---0---|
-----------------------------------------------------------------|
-----------------------------------------------------------------|


---5---5---5---5---5---5---5---5---5---5---5---5---5---5---5---5-|
---6---6---6---6---6---6---6---6---6---6---6---6---6---6---6---6-|
---7---7---7---7---7---7---7---7---7---7---7---7---7---7---7---7-|
-0---0---0---0---0---0---0---0---0---0---0---0---0---0---0---0---|
-----------------------------------------------------------------|
-----------------------------------------------------------------|
Tap to rate this tab
# A B C D E F G H I J K L M N O P Q R S T U V W X Y Z