Song name
# A B C D E F G H I J K L M N O P Q R S T U V W X Y Z

Kt Tunstall - Black Horse And Cherry Tree tab

Help us improve GuitareTab! Take a short survey!
Highlighted       Show chord diagrams
-------------------------------------------------------------------------------
			    Black Horse & the Cherry Tree- KT Tunstall
-------------------------------------------------------------------------------
Tabbed by: ~Rocker Angel~
Email: liquidcrystl@aim.com

Tuning: Standard

KT Tunstall uses the following riff as an intro/interlude during her live performances,
and it is used as a interlude in the recording
e|-----------------------------------------------------------------------------|
B|-----------------------------------------------------------------------------|
G|-----------------------------------------------------------------------------|
D|-----------------------------------------------------------------------------|
A|-----------------------------------------------------------------------------|
E|---0--12--12--10--12--0--12--12-10-12---0--12--12---14b15--12----------------|

and then:

In the recording:

e|-----------------------------------------------------------------------------|
B|-----------------------------------------------------------------------------|
G|-----------------------------------------------------------------------------|
D|-----------------------------------------------------------------------------|
A|-----------------------------------------------------------------------------|
E|---0---12---12---10--12------------------------------------------------------|

In the live performance for the intro:
       (continuous strumming while sliding all the way down to the top of the neck)
e|-------------0-------------------------------------------------------------|
B|-------------0-------------------------------------------------------------|
G|-------------0-------------------------------------------------------------|
D|----14-\-----2-------------------------------------------------------------|
A|----14-\\----2-------------------------------------------------------------|
E|----12-\\----0-------------------------------------------------------------|

| /  slide up
| \  slide down
| h  hammer-on
| p  pull-off
| ~  vibrato
| +  harmonic
| x  Mute note
===============================================================================
Related for Black Horse And Cherry Tree tab