Song name
# A B C D E F G H I J K L M N O P Q R S T U V W X Y Z

Kt Tunstall - Suddenly I See tab

#----------------------------------PLEASE NOTE---------------------------------#
#This file is the author's own work and represents their interpretation of the #
#song. You may only use this file for private study, scholarship, or research. #
#------------------------------------------------------------------------------#

SUDDENLY I SEE
As recorded by KT Tunstall

Transcribed by Jeff Perrin
	

Words and Music by Katie Tunstall

Gtr I (E A D G B E) - 'Distortion'
Gtr II (E A D G B E) - 'Acoustic'
Gtr III (E A D G B E) - 'Acoustic 2'

 Intro
  Moderately Q=100(16=s16)
             $
 4/4
  Gtr I
  Wx2            Q  Q  Q  Q    Q  E. S S S S S S S S S
|------------||-----0-----0--|----0----------------------||
|------------||o----3-----3--|----3--3---3-----3-3-3-3--o||
|------------||-----2-----2--|----2--2---2---2-2-2-2-2---||
|------------||--0-----------|-0-----0---0---0-0-0-0-0---||
|------------||o-------3-----|-------3---3---0----------o||
|------------||--------------|-----------------3-3-3-3---||


 Verse
  Q  Q  Q  Q    Q  E. S S S S S S S S S
|----0-----0--|----0--------------------|
|----3-----3--|----3--3---3-----3-3-3-3-|
|----2-----2--|----2--2---2---2-2-2-2-2-|
|-0-----------|-0-----0---0---0-0-0-0-0-|
|-------3-----|-------3---3---0---------|
|-------------|-----------------3-3-3-3-|


  Q  Q  Q  Q    Q  E. S S S S S S S S S
|----0-----0--|----0---------------------||
|----3-----3--|----3--3---3-----3-3-3-3--||
|----2-----2--|----2--2---2---2-2-2-2-2--||
|-0-----------|-0-----0---0---0-0-0-0-0--||
|-------3-----|-------3---3---0----------||
|-------------|-----------------3-3-3-3--||


 Pre-Chorus
  Q  E. S S S E +S  S S S   E E E E S S E +S  E +S
|-3--3--------------------|-2-2---2-----2-(2)-2-(2)-|
|-0--0--2---2-2-(2)-2-x-x-|-2-2-0-3---x-3-(3)-3-(3)-|
|-0--0--2---2-2-(2)-2-x-x-|-2-2-0-4---x-4-(4)-4-(4)-|
|-0--0--2---2-2-(2)-2-x-x-|-4-4-0-4---x-4-(4)-4-(4)-|
|-------0---0-0-(0)-0-----|-------------------------|
|-------------------------|-------------------------|


  Q  E. S S S E +S  S S S   E E E E S S E +S  E S
|-3--3--------------------|-2-2---2-----2-(2)-2-0---|
|-0--0--2---2-2-(2)-2-x-x-|-2-2-0-3---x-3-(3)-3-0---|
|-0--0--2---2-2-(2)-2-x-x-|-2-2-0-4---x-4-(4)-4-----|
|-0--0--2---2-2-(2)-2-x-x-|-4-4-0-4---x-4-(4)-4-----|
|-------0---0-0-(0)-0-----|-------------------------|
|-------------------------|-------------------------|


  Q  E. S +E  E +S  S S S   Q  E S S +S  S E +S  S S S   E E E E E E S S S S
|-3--3--3-(3)-3-(3)-3-3-3-|-3--3-3-3-(3)-3-3-(3)-3-3-3-|-2-2-2-2-2-2-2-2-2-2--||
|-0--0--0-(0)-0-(0)-0-0-0-|-3--3-3-3-(3)-3-3-(3)-3-3-3-|-3-3-3-3-3-3-3-3-3-3--||
|-0--0--0-(0)-0-(0)-0-0-0-|-3--3-3-3-(3)-3-3-(3)-3-3-3-|-2-2-2-2-2-2-2-2-2-2--||
|-0--0--0-(0)-0-(0)-0-0-0-|-0--0-0-0-(0)-0-0-(0)-0-0-0-|-0-0-0-0-0-0-0-0-0-0--||
|-------------------------|----------------------------|----------------------||
|-------------------------|----------------------------|----------------------||


 Chorus
  $$
  Gtrs I, II
  E. S E S S S S E +S  S S S   Q  E S S +S  S E +S  S S S
|-2--2-2---0-----0-(0)-0-0-0-|-3--3-3-2-(2)-2-2-(2)-0-0-0-|
|-3--3-3-x-2---x-2-(2)-2-2-2-|-0--0-0-3-(3)-3-3-(3)-3-3-3-|
|-4--4-4-x-3---x-3-(3)-3-3-3-|-0--0-0-2-(2)-2-2-(2)-2-2-2-|
|-4--4-4-x-4---x-4-(4)-4-4-4-|-0--0-0-0-(0)-0-0-(0)-0-0-0-|
|-2--2-2---4-----4-(4)-4-4-4-|----------------------------|
|----------2-----2-(2)-2-2-2-|-3--3-3---------------------|


  Q  S S S S +S  S E +S  S S S   Q  E S S S S E +S  S S S
|-2--2-2---0-(0)-0-0-(0)-0-0-0-|-3--3---------------------|
|-3--3-3-x-2-(2)-2-2-(2)-2-2-2-|-3--3-x-5---x-5-(5)-5-5-5-|
|-4--4-4-x-3-(3)-3-3-(3)-3-3-3-|-3--3-x-3---x-3-(3)-3-3-3-|
|-4--4-4-x-4-(4)-4-4-(4)-4-4-4-|-5--5-x-5---x-5-(5)-5-5-5-|
|-2--2-2---4-(4)-4-4-(4)-4-4-4-|-5--5---3-----3-(3)-3-3-3-|
|----------2-(2)-2-2-(2)-2-2-2-|-3--3---------------------|


  E. S E S S S S E +S  S S S   Q  E S S +S  S E +S  S S S
|-2--2-2---0-----0-(0)-0-0-0-|-3--3-3-2-(2)-2-2-(2)-0-0-0-|
|-3--3-3-x-2---x-2-(2)-2-2-2-|-0--0-0-3-(3)-3-3-(3)-3-3-3-|
|-4--4-4-x-3---x-3-(3)-3-3-3-|-0--0-0-2-(2)-2-2-(2)-2-2-2-|
|-4--4-4-x-4---x-4-(4)-4-4-4-|-0--0-0-0-(0)-0-0-(0)-0-0-0-|
|-2--2-2---4-----4-(4)-4-4-4-|----------------------------|
|----------2-----2-(2)-2-2-2-|-3--3-3---------------------|


                                                      D.S.
                                                      D.S.
  Q  S S S S +S  S E +S  S S S   Q  E S S S S E +S  S S S
|-2--2-2---0-(0)-0-0-(0)-0-0-0-|-3--3-----------------------||
|-3--3-3-x-2-(2)-2-2-(2)-2-2-2-|-3--3-x-5---x-5-(5)-5-5-5---||
|-4--4-4-x-3-(3)-3-3-(3)-3-3-3-|-3--3-x-3---x-3-(3)-3-3-3---||
|-4--4-4-x-4-(4)-4-4-(4)-4-4-4-|-5--5-x-5---x-5-(5)-5-5-5---||
|-2--2-2---4-(4)-4-4-(4)-4-4-4-|-5--5---3-----3-(3)-3-3-3---||
|----------2-(2)-2-2-(2)-2-2-2-|-3--3-----------------------||


 Bridge
  Gtr II
  E   Q   E E E E E   E   E E E E E E E
|-------------0-----|-------------------|
|-3---3-------3-----|-----3---------0-3-|
|-2-------------2---|-------2-----0-0---|
|-0-------0-3-----3-|-0-------0-3---2---|
|-------------------|-------------------|
|-------------------|-------------------|
|
| Gtr III
| S S E E E E E E E   S S E E E E E E E
|-------------------|-------------------|
|-------------------|-------------------|
|-----5---5---5---5-|-----5---5---5---5-|
|-5h7---7---7---7---|-5h7---7---7---7---|
|-------------------|-------------------|
|-------------------|-------------------|


  E   E E E E E E E   E   E E E E E E E
|-------------------|-------------------|
|-----3-------3-----|-----3---3---3---3-|
|-2-----2-------2---|-------2-------0---|
|---------0-3-----3-|-0---------3-------|
|-------------------|-------------------|
|-------------------|-------------------|
|
| S S E E E E E E E   S S E E E E E E E
|-------------------|-------------------|
|-------------------|-------------------|
|-----5---5---5---5-|-----5---5---5---5-|
|-5h7---7---7---7---|-5h7---7---7---7---|
|-------------------|-------------------|
|-------------------|-------------------|


  E   E E E E E E E   E   E E E E E E E
|-------------------|-------------------|
|-----3-------3-----|-----3-----------3-|
|-------2-------2---|-------2-----0-----|
|-0-------0-3-----3-|-0-------0-3---2---|
|-------------------|-------------------|
|-------------------|-------------------|
|
| S S E E E E E E E   S S E E E E E E E
|-------------------|-------------------|
|-------------------|-------------------|
|-----5---5---5---5-|-----5---5---5---5-|
|-5h7---7---7---7---|-5h7---7---7---7---|
|-------------------|-------------------|
|-------------------|-------------------|


  E   E E E E E E E   E   E E E E E E E
|-------------------|-------------------|
|-----3-------------|-----3-------3---3-|
|-------2-----0-2---|-------2-------0---|
|-0-------0-3-----3-|-0-------0-3-------|
|-------------------|-------------------|
|-------------------|-------------------|
|
| S S E E E E E E E   S S E E E E E E E
|-------------------|-------------------|
|-------------------|-------------------|
|-----5---5---5---5-|-----5---5---5---5-|
|-5h7---7---7---7---|-5h7---7---7---7---|
|-------------------|-------------------|
|-------------------|-------------------|


  Q     Q   E E E E   Q     E E E E Q
|-------0-----------|-------0-----------|
|-------3-----3-----|-------3-----3-----|
|-------2-------2---|-------2-------0---|
|-0---------3-----3-|-0-------0-3---0---|
|-------------------|-------------------|
|-------------------|---------------3---|
|
| S S E E E E E E E   S S E E E E E E E
|-------------------|-------------------|
|-------------------|-------------------|
|-----5---5---5---5-|-----5---5---5---5-|
|-5h7---7---7---7---|-5h7---7---7---7---|
|-------------------|-------------------|
|-------------------|-------------------|


  Q     E E Q   E E   E   E E E E E E E
|-------------------|-------------------|
|-3-----3-----------|-3---3-----------3-|
|-2-----2---0---2---|-2-----2-----0-----|
|-0-----0-0-3-----3-|-0-------0-3---2---|
|-------------------|-------------------|
|-------------------|-------------------|
|
| S S E E E E E E E   S S E E E E E E E
|-------------------|-------------------|
|-------------------|-------------------|
|-----5---5---5---5-|-----5---5---5---5-|
|-5h7---7---7---7---|-5h7---7---7---7---|
|-------------------|-------------------|
|-------------------|-------------------|


  Gtr I
  W                   W
|-------------------|-------------------|
|-------------------|-------------------|
|-------------------|-------------------|
|-------------------|-------------------|
|-------------------|-------------------|
|-------------------|-------------------|
|
| Gtr II
| Q     E E E E E E   Q     E E E E E E
|-------------------|-------------------|
|-------3-----3-----|-------3-----3---3-|
|-------2-2-----2---|-2-----------------|
|-0-----0---3-----3-|-0-------0-3-------|
|-------------------|-------------------|
|-------------------|---------------3---|
|
| Gtr III
| S S E E E E E E E   S S E E E E E E E
|-------------------|-------------------|
|-------------------|-------------------|
|-----5---5---5---5-|-----5---5---5---5-|
|-5h7---7---7---7---|-5h7---7---7---7---|
|-------------------|-------------------|
|-------------------|-------------------|


                                            D.S.S. al Coda
  E   E E S S +S  S E S S S S   S S S S E S S +S  S E E E
|-----0-0-0-0-(0)-0-0-0-0-0-0-|-1-0-0-0-0-0-0-(0)-0-0-0-0--||
|-----3-3-3-3-(3)-3-3-3-3-3-3-|-3-3-3-3-3-3-3-(3)-3-3-3-3--||
|-----2-2-2-2-(2)-2-2-2-2-2-2-|-2-2-2-2-2-2-2-(2)-2-2-2-2--||
|-0---0-0-0-0-(0)-0-0-0-0-0-0-|-0-0-0-0-0-0-0-(0)-0-0-0-0--||
|-----------------------------|----------------------------||
|-----------------------------|----------------------------||
|
| Q     E E    E    E E   E     Q       E E   +E    E E E
|-----------------------------|-0--------------------------||
|-------3-----------3---------|-3--------------------------||
|-------2-------------2-------|-2-------2-----------2---2--||
|-0-------0----3----------3---|-0---------0---(0)-----0----||
|-----------------------------|----------------------------||
|-----------------------------|----------------------------||
|
| S S E E E    E    E E   E     S S E   E E    E    E E E
|-----------------------------|----------------------------||
|-----------------------------|----------------------------||
|-----5---5---------5-----5---|-----5-----5---------5---5--||
|-5h7---7------7------7-------|-5h7-----7------7------7----||
|-----------------------------|----------------------------||
|-----------------------------|----------------------------||


 Outro
  &
  Gtrs I, II
  E. S E S S S S E +S  S S S   Q  E S S +S  S E +S  S S S
|-2--2-2---0-----0-(0)-0-0-0-|-3--3-3-2-(2)-2-2-(2)-0-0-0-|
|-3--3-3-x-2---x-2-(2)-2-2-2-|-0--0-0-3-(3)-3-3-(3)-3-3-3-|
|-4--4-4-x-3---x-3-(3)-3-3-3-|-0--0-0-2-(2)-2-2-(2)-2-2-2-|
|-4--4-4-x-4---x-4-(4)-4-4-4-|-0--0-0-0-(0)-0-0-(0)-0-0-0-|
|-2--2-2---4-----4-(4)-4-4-4-|----------------------------|
|----------2-----2-(2)-2-2-2-|-3--3-3---------------------|


  Q  S S S S +S  S E +S  S S S   Q  E S S S S E +S  S S S
|-2--2-2---0-(0)-0-0-(0)-0-0-0-|-3--3---3-----3-(3)-3-3-3-|
|-3--3-3-x-2-(2)-2-2-(2)-2-2-2-|-3--3-x-5---x-5-(5)-5-5-5-|
|-4--4-4-x-3-(3)-3-3-(3)-3-3-3-|-3--3-x-3---x-3-(3)-3-3-3-|
|-4--4-4-x-4-(4)-4-4-(4)-4-4-4-|-5--5-x-5---x-5-(5)-5-5-5-|
|-2--2-2---4-(4)-4-4-(4)-4-4-4-|-5--5---3-----3-(3)-3-3-3-|
|----------2-(2)-2-2-(2)-2-2-2-|-3--3---------------------|


  E. S E S S S S E +S  S S S   Q  E S S +S  S E +S  S S S
|-2--2-2---0-----0-(0)-0-0-0-|-3--3-3-2-(2)-2-2-(2)-0-0-0-|
|-3--3-3-x-2---x-2-(2)-2-2-2-|-0--0-0-3-(3)-3-3-(3)-3-3-3-|
|-4--4-4-x-3---x-3-(3)-3-3-3-|-0--0-0-2-(2)-2-2-(2)-2-2-2-|
|-4--4-4-x-4---x-4-(4)-4-4-4-|-0--0-0-0-(0)-0-0-(0)-0-0-0-|
|-2--2-2---4-----4-(4)-4-4-4-|----------------------------|
|----------2-----2-(2)-2-2-2-|-3--3-3---------------------|


  Q  S S S S +S  S E +S  S S S   H    H       W
|-2--2-2---0-(0)-0-0-(0)-0-0-0-|-3---------|-^2----*|
|-3--3-3-x-2-(2)-2-2-(2)-2-2-2-|-3----5----|-^3----*|
|-4--4-4-x-3-(3)-3-3-(3)-3-3-3-|-3----3----|-^2----*|
|-4--4-4-x-4-(4)-4-4-(4)-4-4-4-|-5----5----|-^0----*|
|-2--2-2---4-(4)-4-4-(4)-4-4-4-|-5----3----|-------*|
|----------2-(2)-2-2-(2)-2-2-2-|-3---------|-------*|



Duration Legend
---------------
W - whole; H - half; Q - quarter; E - 8th; S - 16th; T - 32nd; X - 64th; a - acciaccatura
+ - note tied to previous; . - note dotted; .. - note double dotted
Uncapitalized letters represent notes that are staccato (1/2 duration)
Irregular groupings are notated above the duration line
Duration letters will always appear directly above the note/fret number it represents the
duration for.  Duration letters with no fret number below them represent rests.  Multi-
bar rests are notated in the form Wxn, where n is the number of bars to rest for.  Low
melody durations appear below the staff

Tablature Legend
----------------
 h   - hammer-on
 p   - pull-off
 b   - bend
 pb  - pre-bend
 r   - bend release (if no number after the r, then release immediately)
 /\  - slide into or out of (from/to "nowhere")
 s   - legato slide
 S   - shift slide
 - natural harmonic
[n]  - artificial harmonic
n(n) - tapped harmonic
 ~   - vibrato
 tr  - trill
 T   - tap
 TP  - trem. picking
 PM  - palm muting
\n/  - tremolo bar dip; n = amount to dip
 \n  - tremolo bar down
 n/  - tremolo bar up
/n\  - tremolo bar inverted dip
 =   - hold bend; also acts as connecting device for hammers/pulls
 <> - volume swell (louder/softer)
 x   - on rhythm slash represents muted slash
 o   - on rhythm slash represents single note slash

Misc Legend
-----------
 |  - bar
||  - double bar
||o - repeat start
o|| - repeat end
*|  - double bar (ending)
 :  - bar (freetime)
 $  - Segno
 &  - Coda
Tempo markers -  = BPM(8/16=s8/s16), where s8 = swing 8ths, s16 = swing 16ths

Tap to rate this tab
 
# A B C D E F G H I J K L M N O P Q R S T U V W X Y Z