Guitaretab - guitar tabs
Song name
# A B C D E F G H I J K L M N O P Q R S T U V W X Y Z

Kt Tunstall - Throw Me A Rope tab

KT TUNSTALL
THROW ME A ROPE

* Marks the downbeat. Play with swing rather than straight beat.

INTRO (x1)

E---3---------------3---------------3---------------3--------------------------------------|
B-------3-------3-------3-------3-------3-------3-------3------3---------------------------|
G-----0---0---0---0---0---0---0---0---0---0---0---0---0---0--0---0-------------------------|
D------------------------------------------------------------------------------------------|
A---------------------------0---2---3-------3-------3-------3------------------------------|
E---3-------3-------3----------------------------------------------------------------------|
    *       *       *       *       *       *       *       *

VERSE ONE

E---2-------2-------1-------1-------0-------0-------2-------3------------------------------|
B-------3-------3-------3-------3-------3-------3-------3------3---------------------------|
G-----0---0---0---0---0---0---0---0---0---0---0---0---0---0--0---0-------------------------|
D------------------------------------------------------------------------------------------|
A-----------------------------------3-------3-------3-------3------------------------------|
E---3-------3-------1-------1--------------------------------------------------------------|
    *       *       *       *       *       *       *       *

I want you in between me and the feeling I get when I miss you


E---2-------2-------1-------1-------0-------0-------2-------3------------------------------|
B-------3-------3-------3-------3-------3-------3-------3------3---------------------------|
G-----0---0---0---0---0---0---0---0---0---0---0---0---0---0--0---0-------------------------|
D------------------------------------------------------------------------------------------|
A-----------------------------------3-------3-------3-------3------------------------------|
E---3-------3-------1-------1--------------------------------------------------------------|
    *       *       *       *       *       *       *       *

But everything here is telling me I should be fine


E---0-----------0---0-------2---3---3-------2-------3--------------------------------------|
B-------2---3-----------3---------------3-------3-------3-------3--------------------------|
G-----0---0---0---0---0---0---0---0---0---0---0---0---0---0---0---0------------------------|
D------------------------------------------------------------------------------------------|
A---0-------0-------3-------3-------3------------------------------------------------------|
E-------------------------------------------2-------3-------3------------------------------|
    *       *       *       *       *       *       *       *

So why is it so, above as below, that I'm missing you every time


INSTRUMENTAL ONE
E---3---------------3---------------3---------------3--------------------------------------|
B-------3-------3-------3-------3-------3---------------3-------3--------------------------|
G-----0---0---0---0---0---0---0---0---0---0---0---0---0---0---0---0------------------------|
D------------------------------------------------------------------------------------------|
A-----------0-------3-------3-------3-------3---2------------------------------------------|
E---3-----------------------------------------------3-------3------------------------------|
    *       *       *       *       *       *       *       *

E---3---------------3---------------3------------------------------------------------------|
B-------3-------3-------3-------3-------3--------------------------------------------------|
G-----0---0---0---0---0---0---0---0---0---0---0---0----------------------------------------|
D------------------------------------------------------------------------------------------|
A-----------0-------3-------3-------3-------3---2------------------------------------------|
E---3--------------------------------------------------------------------------------------|
    *       *       *       *       *       *

VERSE TWO
E--Oh2------2-------1-------1-------0-------0-------2-------3------------------------------|
B-------3-------3-------3-------3-------3-------3-------3------3---------------------------|
G-----0---0---0---0---0---0---0---0---0---0---0---0---0---0--0---0-------------------------|
D------------------------------------------------------------------------------------------|
A-----------------------------------3-------3-------3-------3------------------------------|
E---3-------3-------1-------1--------------------------------------------------------------|
    *       *       *       *       *       *       *       *

I got used to you whispering things to me into the evening


E---2-------2-------1-------1-------0-------0-------2-------3------------------------------|
B-------3-------3-------3-------3-------3-------3-------3------3---------------------------|
G-----0---0---0---0---0---0---0---0---0---0---0---0---0---0--0---0-------------------------|
D------------------------------------------------------------------------------------------|
A-----------------------------------3-------3-------3-------3------------------------------|
E---3-------3-------1-------1--------------------------------------------------------------|
    *       *       *       *       *       *       *       *

We followed the sun and its colors and left this world


E---0-----------0---0-------2-------3-------2-------3-------2------------------------------|
B-------2---3-----------3-------3-------3-------3-------3-------3--------------------------|
G-----0---0---0---0---0---0---0---0---0---0---0---0---0---0---0---0------------------------|
D------------------------------------------------------------------------------------------|
A---0-------0-------3-------3-------3------------------------------------------------------|
E-------------------------------------------2-------3-------2------------------------------|
    *       *       *       *       *       *       *       *

It seems to me that I'm definitely hearing the best that I've heard


CHORUS ONE
E---0-------0-------0-------2---3---3-------3-------2-------2------------------------------|
B-------0-------0-------3---------------3-------3-------3-------3--------------------------|
G-----0---0---0---0---0---0---0---0---0---0---0---0---0---0---0---0------------------------|
D------------------------------------------------------------------------------------------|
A-------------------3-------3-----------------------2-------2------------------------------|
E---0-------0-----------------------3-------3----------------------------------------------|
    *       *       *       *       *       *       *       *

So throw me a rope to hold me in place


E---0-------0-------0-------2---3---3-------3-------2-------2------------------------------|
B-------0-------0-------3---------------3-------3-------3-------3--------------------------|
G-----0---0---0---0---0---0---0---0---0---0---0---0---0---0---0---0------------------------|
D------------------------------------------------------------------------------------------|
A-------------------3-------3-----------------------2-------2------------------------------|
E---0-------0-----------------------3-------3----------------------------------------------|
    *       *       *       *       *       *       *       *

Show me a clock for counting my days down

[ Tab from: http://www.guitaretab.com/k/kt-tunstall/61872.html ]
E---0-------0-------0-------2---3---3-------3-------3-------3------------------------------|
B-------0-------0-------3---------------3-------3-------3-------3--------------------------|
G-----0---0---0---0---0---0---0---0---0---0---0---0---0---0---0---0------------------------|
D---------------------------------------------------0-------0------------------------------|
A-------------------3-------3--------------------------------------------------------------|
E---0-------0-----------------------3-------3----------------------------------------------|
    *       *       *       *       *       *       *       *

Cause everything's easier when you're beside me, come back and fine me cause I feel alone


INSTRUMENTAL TWO
E---3---------------3---------------3---------------3--------------------------------------|
B-------3-------3-------3-------3-------3-------3-------3----------------------------------|
G-----0---0---0---0---0---0---0---0---0---0---0---0---0---0---0---0------------------------|
D------------------------------------------------------------------------------------------|
A---------------------------0-------3-------3-------3-------3---2--------------------------|
E---3-------3-------3----------------------------------------------------------------------|
    *       *       *       *       *       *       *       *

E---3---------------3---------------3---------------3--------------------------------------|
B-------3-------3-------3-------3-------3-------3-------3----------------------------------|
G-----0---0---0---0---0---0---0---0---0---0---0---0---0---0---0---0------------------------|
D------------------------------------------------------------------------------------------|
A---------------------------0-------3-------3-------3-------3---2--------------------------|
E---3-------3-------3----------------------------------------------------------------------|
    *       *       *       *       *       *       *       *

VERSE THREE
E---2-------2-------1-------1-------0-------0-------2-------3------------------------------|
B-------3-------3-------3-------3-------3-------3-------3------3---------------------------|
G-----0---0---0---0---0---0---0---0---0---0---0---0---0---0--0---0-------------------------|
D------------------------------------------------------------------------------------------|
A-----------------------------------3-------3-------3-------3------------------------------|
E---3-------3-------1-------1--------------------------------------------------------------|
    *       *       *       *       *       *       *       *

And whenever you go it's like holding my breath underwater


E---2-------2-------1-------1-------0-------0-------2-------3------------------------------|
B-------3-------3-------3-------3-------3-------3-------3------3---------------------------|
G-----0---0---0---0---0---0---0---0---0---0---0---0---0---0--0---0-------------------------|
D------------------------------------------------------------------------------------------|
A-----------------------------------3-------3-------3-------3------------------------------|
E---3-------3-------1-------1--------------------------------------------------------------|
    *       *       *       *       *       *       *       *

I have to admit that I kind of like it when I do


E---0-----------0---0-------2-------3-------2-------3-------2------------------------------|
B-------2---3-----------3-------3-------3-------3-------3-------3--------------------------|
G-----0---0---0---0---0---0---0---0---0---0---0---0---0---0---0---0------------------------|
D------------------------------------------------------------------------------------------|
A---0-------0-------3-------3-------3------------------------------------------------------|
E-------------------------------------------2-------3-------2------------------------------|
    *       *       *       *       *       *       *       *

Oh but I've got to be unconditionally unafraid of my days without you


CHORUS TWO
E---0-------0-------0-------2---3---3-------3-------2-------2------------------------------|
B-------0-------0-------3---------------3-------3-------3-------3--------------------------|
G-----0---0---0---0---0---0---0---0---0---0---0---0---0---0---0---0------------------------|
D------------------------------------------------------------------------------------------|
A-------------------3-------3-----------------------2-------2------------------------------|
E---0-------0-----------------------3-------3----------------------------------------------|
    *       *       *       *       *       *       *       *

So throw me a rope to hold me in place


E---0-------0-------0-------2---3---3-------3-------2-------2------------------------------|
B-------0-------0-------3---------------3-------3-------3-------3--------------------------|
G-----0---0---0---0---0---0---0---0---0---0---0---0---0---0---0---0------------------------|
D------------------------------------------------------------------------------------------|
A-------------------3-------3-----------------------2-------2------------------------------|
E---0-------0-----------------------3-------3----------------------------------------------|
    *       *       *       *       *       *       *       *

Show me a clock for counting my days down


E---0-------0-------0-------2---3---3-------3-------2------0h2----2------------------------|
B-------0-------0-------3---------------3-------3-------3-----3----3-----------------------|
G-----0---0---0---0---0---0---0---0---0---0---0---0---0---0-----0--------------------------|
D------------------------------------------------------------------------------------------|
A-------------------3-------3-----------------------2-------2------------------------------|
E---0-------0-----------------------3-------3----------------------------------------------|
    *       *       *       *       *       *       *       *(triplet, triplet)

Cause everything's easier when you're beside me, come back and find me


E---0-------0-------0-------2---3---3-------3-------2------2h3p2---2-----------------------|
B-------0-------0-------3---------------3-------3-------3--------3--3----------------------|
G-----0---0---0---0---0---0---0---0---0---0---0---0---0---0--------------------------------|
D------------------------------------------------------------------------------------------|
A-------------------3-------3-----------------------2-------2------------------------------|
E---0-------0-----------------------3-------3----------------------------------------------|
    *       *       *       *       *       *       *       *(triplet, triplet)

Whenever I'm falling you're always behind me, come back and find me


E---0-------0-------0-------2---3---3-------3-------3-------3---------3--------------------|
B-------0-------0-------3---------------3-------3-------3-------3-----3--------------------|
G-----0---0---0---0---0---0---0---0---0---0---0---0---0---0---0---0---0--------------------|
D---------------------------------------------------0-------0---------0--------------------|
A-------------------3-------3-----------------------------------------X--------------------|
E---0-------0-----------------------3-------3-------------------------3--------------------|
    *       *       *       *       *       *       *       *        END

Cause everything's easier when you're beside me, come back and find me cause I feel alone
Related for Throw Me A Rope tab
×
Throw Me A Rope