Guitaretab - guitar tabs
Song name
# A B C D E F G H I J K L M N O P Q R S T U V W X Y Z

Kt Tunstall - Under The Weather tab

KT TUNSTALL - UNDER THE WEATHER

(With a 6/8 syncopation)


G (3-2-0-0-0-3)---------|
C (x-3-2-0-1-0)---------|
F(add9)/A (x-0-3-0-1-3)-|
Em (0-2-2-0-0-0)--------|
A7 (x-0-2-0-2-0)--------|
D7 (x-x-0-2-1-2)--------|
B7 (x-2-1-2-0-2)--------|
Am7 (x-0-2-0-1-0)-------|

*please note you do not have to hold down the whole chord
 for most of the arpeggiated sections of the song.

**Also, this tab is not 100% accurate, it is my realization of the music
  so feel free to alter it.


    G        C5        F(add9)/A

e-------3---------3---------3-------------------------|
b--0---------1---------1---------------1h3------------|
g----0---------0---------0------0---0-----------------|
d-----------------------------------------------------|
a------------3---------0----------0-------------------|
E--3--------------------------------------------------|


    G       C5         F(add9)/A

e-------3----------3---------3-----------------------|
b--0----------1---------1--------------1h3-----------|
g----0----0------0---0-----0----0---0----------------|
d----------------------------------------------------|
a-------------3---------0---------0------------------|
E--3-------------------------------------------------|

    Under this national raincloud......(X3)


    Em                            F(add9)/A

e--------0----------0-----------0------------0-------|
b---0---------0------------1----------1--------------|
g-----0---0------0----0------0---0-------0---0-------|
d---------------------------3----------3-------------|
a----------------------------------------------------|
E---0---------0--------------------------------------|

    But I don't know where to begin.  (repeat above)


    Em                           A7           D7
[ Tab from: http://www.guitaretab.com/k/kt-tunstall/66578.html ]
e--------0----------0-------------------2------------|
b---0---------0-----------2---------------1----------|
g-----0----0-----0---0---------0------------2--------|
d-----------------------------2----2----0------------|
a--------------------------0-------------------------|
E---0--------0---------------------------------------|

    But still feel likeIm gonna sink..coz Im


    G

e--------------------------------------------------|
b---0----------1---------0---------1---------------|
g--------0---------0---------0---------0-----------|
d------0---0-----0---0-----0---0-----0---0---------|
a--------------3-------------------3---------------|
E---3--------------------3-------------------------|

   Under the weather......just like the world


    G          B7        Em          D         C5         D

e-------------------------0----0-----------------------------------|
b---0----------0---------------------3---------3--------(-3--------|
g--------0--------2---------0---0--------0---------0----(----0-----|
d------0---0-----1---2-----------------0---0-----0---0--(--0---0---|
a--------------2---------------------5---------1--------(-5--------|
E---3--------------------0-----------------------------------------|

 So sorry for being so bo--ld.......................(repeat above)


    G        C5       F(add9)/A

e-------3----------3---------3--------------------|
b--0---------1---------1---------------1h3--------|
g----0---------0----------0------0---0------------|
d-------------------------------------------------|
a------------3---------0------------0-------------|
E--3----------------------------------------------|

Feels Like home....................


VERSE 3

CHORUS 2

BRIDGE (strum chords)

             B7    Em    Am7   D
 Feels like home   (x3)

             B7    Em    Am7   D   G   C5   F(add9)/A
 Feels Like home

        C5         G     C5   F(add9)/A  C5   G   C5   F(add9)/A
Yes it feels like home

        C5         G     C5   F(add9)/A   C5
yes it feels like home


CHORUS
Related for Under The Weather tab
Under The Weather chords by Kt Tunstall