Song name
# A B C D E F G H I J K L M N O P Q R S T U V W X Y Z

Kt Tunstall - Silent Sea tab

Highlighted       Show chord diagrams
hey this is my first evaer tab. Please comment and rate. Im sure this all right. XXX KathrynXXX

Em	-0-2-2-0-0-0-
C	-X-3-2-0-1-0-
G	-3-2-0-0-0-3-
B7	-X-2-1-2-0-2-
Bm7	-X-2-4-2-3-2-
A#	-X-1-3-3-3-1- or -6-8-8-7-6-6-
Am	-X-0-2-2-1-0-
Cmaj7	-X-3-2-0-0-0-
Aadd9	-X-0-2-2-0-0-

Intro: 
E|-12------------12------------12------------12-----------|
B|--------12------------12------------12------------12----|
G|-----12----12------12----12------12----12------12----12-|
D|--------------------------------------------------------|
A|-11------------11------------11------------11-----------|
E|--------------------------------------------------------|

E|-12------------12------------12------------12-----------|
B|--------12------------12------------12------------12----|
G|-----12----12------12----12------12----12------12----12-|
D|--------------------------------------------------------|
A|-10------------10------------10------------10-----------|
E|--------------------------------------------------------|

E|-12------------12------------12------------12-----------|
B|--------12------------12------------12------------12----|
G|-----12----12------12----12------12----12------12----12-|
D|--------------------------------------------------------|
A|---------------11--------------------------11-----------|
E|--0--------------------------0--------------------------|

E|-12------------12------------12-------------------------|
B|--------12------------12---------12---------------------|
G|-----12----12------12----12---------12------------------|
D|---------------------------------------11---------------|
A|-10------------10------------10-------------------------|
E|--------------------------------------------------------|

       Em          C
I was happy in my harbour 
          G      B7
When you cut me loose 
  Em            C
Floating on an ocean 
     G      B7
And confused 

 Em                 C
Winds are whipping waves up 
      G           B7
Like sky scrapers 
         Em          C
And the harder they hit me 
     G       B7      Em | C | G | B7 |
The less I seem to bruise 

        C
Oh when I 
            Bm7
Find the controls 
                 A#
I'll go where I like 
                   Am     C
I'll know where I want to be 
               Bm7
But maybe for now 
                 A#
I'll stay right here 
      Am---
On a silent sea 
             Em | C | G | B7 
On a silent sea
             Em | C | G | B7 
On a silent sea

       Em          C
I was happy in my harbour 
          G      B7
When you cut me loose 
  Em            C
Floating on an ocean 
     G      B7
And confused

Em | C | G | B7 | 2x 

        C
Oh when I 
            Bm7
Find the controls 
                 A#
I'll go where I like 
                   Am     C
I'll know where I want to be 
               Bm7
But maybe for now 
                 A#
I'll stay right here 
      Am     C  Bm7
On a silent sea 
            A#  Am | C | Bm7
On a silent sea
                 A#
I'll stay right here
      Am        
On a silent sea

E|--0-------------0-------------0-------------0-----------|
B|--------12------------12------------12------------12----|
G|-----12----12------12----12------12----12------12----12-|
D|--------------------------------------------------------|
A|-11------------11------------11------------11-----------|
E|--------------------------------------------------------|

E|-12------------12------------12------------12-----------|
B|--------12------------12------------12------------12----|
G|-----12----12------12----12------12----12------12----12-|
D|--------------------------------------------------------|
A|-10------------10------------10------------10-----------|
E|--------------------------------------------------------|

E|--0-------------0-------------0-------------0-----------|
B|--------12------------12------------12------------12----|
G|-----12----12------12----12------12----12------12----12-|
D|--------------------------------------------------------|
A|---------------11--------------------------11-----------|
E|--0--------------------------0--------------------------|

E|-12------------12------------12------------12-----------|
B|--------12------------12------------12------------12----|
G|-----12----12------12----12------12----12------12----12-|
D|--------------------------------------------------------|
A|-10--------------------------10------------10-----------|
E|----------------0---------------------------------------|

E|--0-------------0-------------0-------------0-----------|
B|--------12------------12------------12------------12----|
G|-----12----12------12----12------12----12------12----12-|
D|--------------------------------------------------------|
A|-11--------------------------11-------------------------|
E|----------------0---------------------------0-----------|

E|-12------------12------------12------------12-----------|
B|--------12------------12------------12------------12----|
G|-----12----12------12----12------12----12------12----12-|
D|--------------------------------------------------------|
A|-10------------10------------10-------------------------|
E|--------------------------------------------0-----------|

E|--0-------------0-------------0-------------0-----------|
B|--------12------------12------------12------------12----|
G|-----12----12------12----12------12----12------12----12-|
D|--------------------------------------------------------|
A|-11--------------------------11-------------------------|
E|----------------0---------------------------0-----------|

E|-12------------12------------12------------12-----------|
B|--------12------------12------------12------------12----|
G|-----12----12------12----12------12----12------12----12-|
D|--------------------------------------------------------|
A|-10------------10------------10------------10-----------|
E|--------------------------------------------------------|

        Cmaj7
Oh when I 
            Bm7
Find the controls 
                 A#
I'll go where I like 
                   Aadd9   Cmaj7
I'll know where I want to be 
               Bm7
But maybe for now 
                 A#
I'll stay right here 
      Am---
On a silent sea
Tap to rate this tab
# A B C D E F G H I J K L M N O P Q R S T U V W X Y Z