Song name
# A B C D E F G H I J K L M N O P Q R S T U V W X Y Z

Kthjellu - Mundohem Te Harroj tab

Help us improve GuitareTab! Take a short survey!
Bendi    : Kthjellu
Kenga    : Mundohem te harroj
Tabb     : Ilir Livoreka
Kontakti : iLoo.st@hotmail.com


e-----------------------------------------------------------------------|
B--------0---------------0----------------0-----------------------------|
G------0---4--0--------0---4------------0---4---------------------------|
D----4------4--------4-------4-4------4-------4-0-----------------------|
A--2---------------2----------------2-------------------------5--4-5--2-|
E----------------------------------------------------2/3/5--5-----------|

kjo pjes luhet weq n fillim pi kitares, nosha nuk dallohet mir se edhe klaviatura e 
nt'njejtat akorde..
ngojeni edhe kqyreni sa her me lujt se se di tamam..

e----------------------------------------------------------------------|
B-------0---------------0---------------0------------------------------|
G---------4---0-----------4---------------4----------------------------|
D----4------4--------4------4-4------4------4-0------------------------|
A--2---------------2---------------2-------------------------5--4-5--2-|
E---------------------------------------------------2/3/5--5-----------|

akordet: Hm,G,Hm,Fm,Hm,D,A,Hm veq i mani me ritem..

ura: E (nuk ndjej asgje)

refreni: H,A,E (me disturzi)

solo: luhet n oktav.. kush ka processor e lshon disturzin me oktaver edhe lun weq me ni 
vet ta man oktaven)

e--------------------------------------------------------||--19-19-19-19-19-19-19-19-|
B--------------------------------------------------------||--------------------------|
G--7/12/11----7-7/4---7-7/4----7/12/11----7-7/4---7-7/9--||--------------------------|
D--------------------------------------------------------||--------------------------|
A--5/10/9-----5-5/2---5-5/2----5/10/9-----5-5/2---5-5/7--||--------------------------|
E--------------------------------------------------------||--------------------------|

manej edhe ni pjes e solos osht si improvizim i vocalit.. normal luhet n oktava njejt si nalt
weq me nota pak ma ndryshe..

osht edhe ni pjes qi luhet mas solos ose para outros ajo i ka akordet si refreni weq qi 
si n riffa...

akordet qi luhen n ton kongen jon qeto, kqyrne renitni edhe vet pakk..

H x24xxx |
A x02xxx | n ket menyr i lun n refren
E 02xxxx |

e kshtu standard i luni ton kongen

Hm(Bm) x24432
G 320003
Fm 244222
D xxx232
A x02220
E 022100

me t mira.
Related for Mundohem Te Harroj tab