Song name
# A B C D E F G H I J K L M N O P Q R S T U V W X Y Z

Kubichek - Roman Is Better tab

Tuning standard
http://www.kubichek.co.uk/

Intro 00:00
|-------------------------|
|-------------------------|
|-------------------------|
|-------------------------|
|--8-10-10-10-10-10-10--10|
|-------------------------| x 2


Chorus  00:02
"All you ever teach is silence..."
|------------------------------------------|
|------------------------------------------|
|--12--14--15--19--17---12--14--15--19--?--|
|---x---x---x---x---x----x---x---x---x--?--|
|--10--12--13--17--15---10--12--13--17--?--|
|------------------------------------------| x2
(If you like you can play the same thing three times it sounds good!)

Verse 00:24
Guitar 1 "Roman is better, for you information.."
Fast picking listen for ryhtm. It's more than three times on each note.
REVERB
|-------------------------------------|
|-------------------------------------|
|--121212--141414--101010----121212---|
|-------------------------------------|
|-------------------------------------|
|-------------------------------------|

and after the verse:

Guitar 1 00:46
|-----------------------------|
|--------13-15--13------------|
|--14h15-----------14h15p14---|
|--------------------------15-|
|-----------------------------|
|-----------------------------|

Guitar 2
|-----------10x10x10~---------|
|-----------11x11x11~---------|
|-----------12x12x12~---------|
|-----------12x12x12~---------|
|-----------10x10x10~---------|
|-----------10x10x10~---------|

I hav not figured out everything so if somebody knows feel free to add it :) The riffs 
repeated several times through the song!

By: Emil Sundvall
emil.sundvall@gmail.com
Tap to rate this tab
 
# A B C D E F G H I J K L M N O P Q R S T U V W X Y Z