Song name
# A B C D E F G H I J K L M N O P Q R S T U V W X Y Z

Kudai - Tal Vez chords

Highlighted       Show chord diagrams
     Gm
Tal vez,
    F                    D#      A#      D
Mañaaana sea sólo un recueerdo,   ahhhhhh ahhhhhhh, y
     Gm
Tal vez,
    F                   D#    D
Mañaaana seas sólo mi ayeeer, ohhh



    D#              Gm
Ya ves, lo sé, el tiempo irá escribiendo
    Cm              A#               D
De luz, de fé, las calles del desierto
       D#                  D
Que entonces hirieron la piel


(Coro)

         Gm                          D#
Y ahora ves, que otra vez, puedo entrar, en mi ayer
           A#              D
Los recuerdos no matan mi fé
           Gm                        D#
Quiero hablar, quiero ver, quiero estar y quiero ser
           A#               D
Y en tus brazos volver a naceeer

Cm
Y ahora ven y tómame
    Gm                   F        D
Que junto a ti yo volveré a… nacer



     Gm
Tal vez
  F                        D#    A#      D
Ayer no sea más que un recuerdo, ahhhhhh ahhhhhh, y
     Gm
Tal vez,
     F                        D#    D
El ayer se borre de nuestra pieeel, ohhh


       D#              Gm
Y tal vez, no sé, el tiempo me dé el tiempo
       Cm              A#                 D
De hablar, de ver, la luz de un sentimiento
     D#                   D
El sueño que aún puede nacer


(Coro)

         Gm                          D#
Y ahora ves, que otra vez, puedo entrar, en mi ayer
           A#              D
Los recuerdos no matan mi fé
           Gm                        D#
Quiero hablar, quiero ver, quiero estar y quiero ser
           A#               D
Y en tus brazos volver a naceeer

Cm
Y ahora ven y tómame
    G#                   F        D
Que junto a ti yo volveré a… nacer


Solo:

e |------10--11--10--------------------------|
B |--------11--11--11-8-11-------------------|
G |------------------------------------------|    x3
D |------------------------------------------|
A |------------------------------------------|
E |------------------------------------------|


e |----10--11--10--11--10--------|
B |------11--11--11--11----------|
G |------------------------------|
D |------------------------------|
A |------------------------------|
E |------------------------------|


e |-10---17-18-18-18-17-18-18-18------|
B |-----------------------------------|
G |-----------------------------------|
D |-----------------------------------|
A |-----------------------------------|
E |-----------------------------------|


e |---20-20-20-20-20-20-20---19-20-19-20---21-|
B |-------------------------------------------|
G |-------------------------------------------|
D |-------------------------------------------|
A |-------------------------------------------|
E |-------------------------------------------|


(Coro)

         Gm                          D#
Y ahora ves, que otra vez, puedo entrar, en mi ayer
        A#                 D
Los recuerdos no matan mi fé
           Gm                        D#
Quiero hablar, quiero ver, quiero estar y quiero ser
           A#               D
Y en tus brazos volver a naceeer

     Gm                  D#               A#                 D
Tal vez............haaa aaa    (los recuerdos no matan mi fé)
     Gm                  D#                  A#               D
Tal vez............haaa aaa    (y en tus brazos volver a naceeer)


Gm               D#
   Ohhhhhh ohhh,   ohhhhhh ohhh ohhh,
A#               D                         x2
   Ohhhhhh ohhh,   ohhhhhh ohhh ohhh,         ……………     (Tal Vez)

 e|-18-17-15-17-18-17-15-17-18-17-15-17-18-17-15-16-----|
 B|-----------------------------------------------------|
 G|-----------------------------------------------------|
 D|-----------------------------------------------------|
 A|-----------------------------------------------------|
 E|-----------------------------------------------------|


Tap to rate this tab
 
# A B C D E F G H I J K L M N O P Q R S T U V W X Y Z