Song name
# A B C D E F G H I J K L M N O P Q R S T U V W X Y Z

Kudai - Lejos De La Ciudad tab

Intro

||--------------------------------------------------------||
||-----0-----0-------0-----------0-----0-------0--------0-||
||---3-----3-------3---3-------3-----3-------3---3------3-||
||-1-------------4-------4---1-------------4-------4----4-||
||-------4-----2-----------2-------4-----2-----------2--2-||
||--------------------------------------------------------||


 Fa#
El mismo lugar
   La#m
Las calles y el mar
   Si             Sim             Fa#
La luna ilumina las horas de mi soledad
  Do#  Sol#m  Si Sim
¿Y donde estas?

      Fa#
Aun puedo escuchar
    La#m
Tus pasos tu andar
     Si            Sim
El viento me trae los besos que hoy ya no
   Fa#   Do#  Sol#m    Si Sim
Estarán ¿Y donde estas?
Sol#m        Do#   Do#7
Yo aquí te espero…


Coro.-

 Sol#m   Si  Fa#    La#m
Y aun recuerdo ese momento
    Sol#m   Si  Fa# Fa#/Mi
Tus besos al despertar
   Sol#m   Si      Fa#      La#m
La brisa el viento, la luz del puerto
    Sol#m    Si
Tan lejos de la ciudad…

||------------------------------------------------------|
||-----0-----0-------0-----------0-----0-------0--------|
||---3-----3-------3---3-------3-----3-------3---3------|
||-1-------------4-------4---1-------------4-------4----|
||-------4-----2-----------2-------4-----2-----------2--|
||------------------------------------------------------|

El frió se irá, la luz volverá Y espero que entonces el tiempo nos

-------------------------------------------------|
-------------------2-----------4-----------3-----|
-------3---------3---3-------4---4-------4---4---|
-----4---4-----3-------3---4-------4---4-------4-|
---4-------4-1-----------2-----------2-----------|
-2-----------------------------------------------|

 vuelva a encontrar       ¿Donde estarás?

--------------------------------------------------||
-------------------6-----------4-----------4------||
-------3---------6---6-------4---6-------4---4----||
-----4---4-----6-------6---6-------4---4-------4--||
---4-------4-4-----------6-----------2------------||
-2------------------------------------------------||


Sol#m        Do#   Do#7
Yo aquí te espero…


  Sol#m  Si  Fa#    La#m
Y aun recuerdo ese momento
    Sol#m    Si Fa#  Fa#/Mi
Tus besos al despertar
   Sol#m    Si     Fa#      La#m
La brisa, el viento, la luz del puerto
    Sol#m    Si Fa#m   Do#
Tan lejos de la ciudad…

Mim - Si - Re - La – Do#


  Sol#m  Si  Fa#    La#m
Y aun recuerdo ese momento
    Sol#m    Si   Fa# Fa#/Mi
Tus besos al despertar
   Sol#m    Si     Fa#      La#m
La brisa, el viento, la luz del puerto
    Sol#m   Si  Fa#  Fa#/Mi
Tan lejos de la ciudad
    Sol#m   Si  Fa#  La#m
Tan lejos de la ciudad
    Sol#m   Si  Fa#  Fa#/Mi
Tan lejos de la ciudad
   Sol#m    Si
Tan lejos de la ciudad…

||--------------------------------------------------------||
||-----0-----0-------0-----------0-----0-------0--------0-||
||---3-----3-------3---3-------3-----3-------3---3------3-||
||-1-------------4-------4---1-------------4-------4----4-||
||-------4-----2-----------2-------4-----2-----------2--2-||
||--------------------------------------------------------||

-.-
Fa#/Mi

-0--
-0--
-3--
-4--
-4--
-2--
-.-

estoy muy seguro de la tablatura, espero que les guste porque es una buena cancion- 
soy la misma persona que envio "Ya nada queda" de esta misma banda.
Tap to rate this tab
# A B C D E F G H I J K L M N O P Q R S T U V W X Y Z