Song name
# A B C D E F G H I J K L M N O P Q R S T U V W X Y Z

Kukiz I Piersi - Caluj Mnie tab

x = palm mute

Main riff (and chorus)

e|---------------------------|
B|---------------------------|
G|---------------------------|
D|--7-7----------------------| 
A|--5-5---7-7--9-9--5-5--7-7-| 
E|--------5-5--7-7--3-3--5-5-| 


verse:

e|--------------------------------|
B|--------------------------------|
G|--------------------------------|
D|--7-7---------------------------| 
A|--5-5---7-7-9--5--5-5--7-7------| 
E|--------5-5-7--3--3-3--5-5------| 


before chorus:

e|----------------------------------------------------------|
B|----------------------------------------------------------|
G|----------------------------------------------------------|
D|--------------------2-----------------------------------2-|
A|--5-----2-----5-----0-----5-----2-----5-5-5-5-5-5-5-5---0-| 
E|--3-----0-----3-----------3-----0-----3-3-3-3-3-3-3-3-----| 
                                            x x x x x x
solo:

e|----------------------------------------------------------|
B|---------------------------0-----0------------------------|
G|----------2-2----2-2----------------0---------------------|
D|-------4-------4--------------------------0---------------| 
A|----5------------------2----------------------------------| 
E|----------------------------------------------2-3-2-3-2---| 


e|----------------------------------------------------------|
B|---------------------------0-----0------------------------|
G|----------2-2----2-2----------------0---------------------|
D|-------4-------4--------------------------0---------------| 
A|----5------------------2----------------------------------| 
E|----------------------------------------------2-3-2-3-2---| 






e|-----------------------------------------------|
B|----------------------------------0------------|
G|-------------------------------------2--2------|
D|-0------0--4----2--2----0---0---0--------------| 
A|-----2-------2------------2---2----------------| 
E|-----------------------------------------------|


e|---------------------------------------------------|
B|---------------------------------------------------|
G|-------------------------------------------0-------|
D|----0-------0-----0--4-----2--2------2--4----------| 
A|---------2-----2-----------------------------------| 
E|---------------------------------------------------|  


e|----------------------------------------------------|
B|----------------------------------------------------|
G|------0---0----0---0----0---0---0---0---------------|
D|----2---4----2---4----2---4---2---4----4--2--2--0--2| 
A|----------------------------------------------------| 
E|----------------------------------------------------| 
Tap to rate this tab
 
# A B C D E F G H I J K L M N O P Q R S T U V W X Y Z