Song name
# A B C D E F G H I J K L M N O P Q R S T U V W X Y Z

Kula Shaker - Start All Over tab

A few versions on here of this but mostly just chords so here's my go - love this song

Tab by: JMILLI2
Kula Shaker - Start All Over

Intro:

     Em                          A            A7sus4  A7
e:----------7----7----------------------------------------------|
b:----------8----8----------------------------------------------|
g:--7h9---7h9-----7--9---7-------6-----------6h7------6------0--|
d:----9-----9----9-------9---------------------5------5h7----0--|
a:----7----------------------x---7-------------7------7------0--|
e:---------------------------x---5---------5---5------5---------|

     C                          G
e:--------------------------------------------------------|
b:---5----5----5----------------0--------------1--1-------|
g:---5----5----5-------5--------0-----------0--0--0-------|
d:---5----5----5-------5h7p5----0-------------------------|
a:---3----3-------5h7-------------------------------------|
e:-------------------------x----3--------3------------0---|


Verse:
      Em                 A                   C                  G
e:------------0----------------------------------------------------|
b:----0-------0------------2-----3--5----0---5---5----------0---0--|
g:----0--------------------2-----0--0----0---5---5-------5--0---0--|
d:----2--------------------2--0--------------5---5-------5--0---0--|
a:----2--------------------------------------3---3---5h7-----------|
e:----0---------------------------------------------------------3--|
      Oh......  my love

                           Em                  A
e:------------------------------0------------------------------|
b:------3--1--0-----------------0-------0-----2-----3--5-------|
g:------0--0--0-----------------0-------------2-----0--0----0--|
d:---------------2p0--2--------------2-----2--2-------------0--|
a:--------------------------------------------0----------------|
e:--------------------0----0-----------------------------------|

     C                G
e:-------------------------------------------|
b:---5----5h6-5---0----------3--0------------|
g:---5----5-7-5---0----------0--0--0---0--0--|
d:---5----5-7-5---0-------0--0--0--0---0--0--|
a:---3---------------------------------------|
e:--------------------3---3------------------|

(at end of second verse stops here ang goes to solo but first verse does this:)

    Em               A        A7       Am6
e:-------0----------------------------------------------|
b:-------0---0--0-------2-----3--5--5---5---------------|
g:-------0---0--0---2---------0--0--0---5------5--0-----|
d:------------------2---2--0------------4---------------|
a:---0--------------0-----------------------------------|
e:---------------------------------------------------0--|

    Em       A          Em              A           A7
e:---------------------------0-----0----------------------------|
b:-------5-------------------0-----0----------2-----3--5--------|
g:----0--0--2---2--2--0------0-----0----------2-----------0-----|
d:----4--4--2---2--2--0---------------0---2---2--0--4--5-----0--|
a:-----------------------------------------------------------0--|
e:-----------------------0--------------------------------------|

    C                  C                 G7
e:--0---0---0-0-0-0----0---0---0-0-0-0-------3---1---1-------1-----1-------|
b:--1---1---1-1-1-1----1---1---1-1-1-1-----------0---0---1h3---1h3---0-----|
g:--0---0---0-0-0-0----0---0---0-0-0-0-------------------------------------|
d:--2---2---2-2-2-2----2---2---2-2-2-2-------------------------------------|
a:--3---3---3-3-3-3----3---3---3-3-3-3----------------------------------0--|
e:--3---3---3-3-3-3----3---3---3-3-3-3---3---------------------------------|

(then verse two)

Solo:

    F      Fsus2    Am                 D                 Dsus2
e:-------------------------------------------------------------|
b:----6h8--8b--6h8--5------------------------------------------|
g:---------------------------5-----5---5h7---------------------|
d:------------------------------7-------------7---5---4--------|
a:-------------------------------------------------------------|
e:-------------------------------------------------------------|

    D       Dsus4        D   Dsus2    F        Fsus2
e:---------------------------------------------------------------|
b:---------------------------------------10----------------------|
g:------------------------------------------12-12b-14-12p10--12--|
d:--5p4-----------4h5p4------------------------------------------|
a:-------7--x--x---------7---5/0---------------------------------|
e:------------------------------------x--------------------------|

    Am                 D       Dsus2  D  Dsus2   D   Dsus2
e:--------------------------------0---------------------------|
b:---------------8/10----------12-13------13h15---------------|
g:--9---------5----------------13h14---------14---------------|
d:---------7----------------------0-----------0---------------|
a:------0-----------------------------------------------------|
e:-----------------------------------------------------15/0---|


There the main parts - theres a bit at the end missing but its pretty much whats been 
already (nearly :-p) but if you desperate I'll add it later.

Enjoy
Tap to rate this tab
# A B C D E F G H I J K L M N O P Q R S T U V W X Y Z