Song name
# A B C D E F G H I J K L M N O P Q R S T U V W X Y Z

Kula Shaker - Sound Of Drums Drum tab

Capo 2nd fret.
Right at the start of the song this little bit is
faded  in. 

E----0-0-0-0-0-0-0
A----5-5-7-7-3-3/5
D-----------------
G-----------------
B-----------------
E-----------------

Then the main riff enters.
E-----------------------------------------------
B-----------------7-8-10------------------------
G----5---5---5-7--7-7-7-----5---5---5-7-4/5/4--2
D--0---0---0--------------0---0---0-------------
A-----------------------------------------------
E-----------------------------------------------

This is played with overdrive and slight delay.This is
played over the lyrics up until.."Revoulution for
fun,Ah yeah yeah."

Then the Hamond enters and the Guitar plays 

F...A...D...C

Until:"I feel the time has come" 
     E----3--3--3--3--3--5--5-----------
     B----5--5--5--5--5--5--5-----------
     G----5--5--5--5--5--6--6--7-8-9-8-7
     D----5--5--5--5--5--7--7-----------
     A----3--3--3--3--3--7--7-----------
     E----------------------------------
       "I hear the sound of..."
      "Dru-------ms
     E---------------------
     B-1--0--3--2----------
     G-0--2--2--2----------
     D-2--2--2--2----------
     A-3--0--0--0----------
     E---------------------

Then theres another verse and another bridge.Then
theres that bit on the albums where theres no music in
particular before the end bit which goes like:
    
     E.E..G.G..C.C..Dsus2

 These arn't what Crispian plays ,their sound alikes
to what the keyboard plays and their useful on the
guitar.


Then theres the reprise of the Lyrics and then the
very end bit goes like this:

E------------2-
B----4-4-----3-
G----3-3--0--2-
D----2-2--0--0-
A----3-3--0----
E----2-2-------

This played four times then thats it!
Tap to rate this tab
# A B C D E F G H I J K L M N O P Q R S T U V W X Y Z