Guitaretab - guitar tabs
Song name
# A B C D E F G H I J K L M N O P Q R S T U V W X Y Z

Kultur Shock - Zumbul tab

e|---------------------------------------------------------------------|
B|---------------------------------------------------------------------|
G|----2---2----2h3p2---0---0--2----2h3p2-0---0-------------------------|
D|--0---0---0--------------------3--------------2----2h3--3p2---0------|
A|---------------------------------------------------------------------|
E|---------------------------------------------------------------------|
[ Tab from: http://www.guitaretab.com/k/kultur-shock/105678.html ]

e|---------------------------------------------------------------------|
B|---------------------------------------------------------------------|
G|--0---0----0h2p0--------0---2h3p2---0---0----------------------------|
D|----0---0---------3---3---0-----------------2---2h3---3p2---0--------|
A|---------------------------------------------------------------------|
E|---------------------------------------------------------------------|

Related for Zumbul tab
Zumbul chords by Kultur Shock