Song name
# A B C D E F G H I J K L M N O P Q R S T U V W X Y Z

Kumiko Noma - Lilium tab

Arranged by RELTDEATS

Tab download link:
http://sdrv.ms/14GZ7Nn

YouTube video played with tab:
http://youtu.be/5l0NZhNcAbs

E |-------9-----------------------------------|-------9--------------------------7---------|
B |--7---------9------------10----10----------|--7---------9------------10-------------10--|
G |----------------------6--------------------|----------------------6---------------------|
D |-----------------6----------------------7--|-----------------6--------------------------|
A |------------8------------------9-----------|------------8---------------------9---------|
E |-------------------------------------------|--------------------------------------------|

|--2-------------------------4----0--------|---------------------------------------------|
|-------------3-------------------------3--|--5----------------------------7-------------|
|--------2--------2-----4------------------|--------------6----------------------7----6--|
|--0---------------------------------------|--------6---------6------8-------------------|
|------------------------------------------|--4----------------------9-------------------|
|------------------------------------------|---------------------------------------------|

|---------------------------------------7--|---------------------------------------------|
|-------------7----------9-----10----------|--10--------------------10-------------------|
|--7----9----------------------------------|-----------------11----------------10--------|
|------------------------------------------|---------11------------------------11--------|
|------------------------------------------|-----------------------------------11--------|
|--7---------------8-----------------------|--9--------------------------------9---------|
-
|------9-----------------------------------|-------9--------------------------7----------|
|--7-------9------------10----10-----------|--7---------9------------10------------10----|
|--------------------6---------------------|----------------------6----------------------|
|---------------6-------------------7------|-----------------6---------------------------|
|----------8------------------9------------|------------8---------------------9----------|
|------------------------------------------|---------------------------------------------|

|--2-------------------------4----0--------|---------------------------------------------|
|-------------3------------------------3---|--5----------------------------7-------------|
|--------2--------2-----4------------------|--------------6----------------------7----6--|
|--0---------------------------------------|--------6---------6------8-------------------|
|------------------------------------------|--4----------------------9-------------------|
|------------------------------------------|---------------------------------------------|

|--------7---------------------------------|---------------------9----10--------------10-|
|------------10----9-----7-----------------|--------11----12----------------10----9------|
|--7--------------------------10---8---10--|--11-----------------------------------------|
|------------------------------------------|--------------------------9------------------|
|----------------------------------8-------|--9-----------------------------------7------|
|--7----------8----------9-----------------|---------------------------------------------|

|--9-/-12--------------8-------------------|---------------------------------------------|
|-----------10---14----7---10---9----------|--10-----------------10----------------------|
|--9-------------------8-------------11----|---------------11------------10--------------|
|--7-------------------7-------------------|---------11------------------11--------------|
|-----------9-/-(12)------------8----------|-----------------------------11--------------|
|------------------------------------------|--9--------------------------9---------------|

|-------9----------------------------------|-------9--------------------------7----------|
|--7---------9------------10----10---------|--7---------9--------------10-----------10---|
|----------------------6-------------------|----------------------6----------------------|
|-----------------6--------------------7---|-----------------6---------------------------|
|------------8------------------9----------|------------8---------------------9----------|
|------------------------------------------|---------------------------------------------|

|--2-------------------------4----0--------|---------------------------------------------|
|-------------3-------------------------3--|--5----------------------------7-------------|
|--------2--------2-----4------------------|-------------6-----------------------7----6--|
|--0---------------------------------------|--------6---------6------8-------------------|
|------------------------------------------|--4--------------------- 9-------------------|
|------------------------------------------|---------------------------------------------|

|------7-----------------------------------|---------------------------------------------|
|-----------10----9-----7------------------|------------------12------10-----------------|
|--7-------------------------10----8----10-|--11---------11-----------11-----------------|
|------------------------------------------|--------11----------------11-----------------|
|----------------------------------8-------|--9-----------------------9------------------|
|--7--------8-----------9------------------|---------------------------------------------|

|--------------9------------------10----9--|--7-------------------------|
|--10----12-------------10---12------------|-------10-----9-------------|
|------------------9-----------------------|--------------9-------------|
|------------------------------------------|--------------9-------------|
|--------------0------------------11-------|--9-----------7-------------|
|------------------------------------------|----------------------------|

|--------------9-----------11----------9---|--9-------------------------|
|--10----12------------10---------12-------|------------------10--------|
|------------------9-----------9-----------|------------11--------------|
|------------------------------------------|------11--------------------|
|--9-----11----0---------------------------|--9-------------------------|
|------------------------------------------|----------------------------|

|--------------9-----------------10----9---|-----------9---------------------------------|
|--10---12-------------10---12-------------|--12------------10-----9-----10-----7--------|
|------------------9-----------------------|----------------11-----9------------7--------|
|------------------------------------------|----------11-----------9------------7--------|
|--------------0-----------------11--------|--9--------------------7------------5--------|
|------------------------------------------|---------------------------------------------|

|--4---5--9----12---11-----------9---------|-------------------------14------------------|
|---------10---------------12----10--------|-----------------------------------------15--|
|---------9----------------------11----11--|--9------------------------------14----------|
|-------------------9------------11--------|------11----9------------0-------------------|
|---------0----------------------9---------|---------------------------------------------|
|------------------------------------------|-----------------0---------------------------|

|--14---12---10----9---------11---------9--|---------------------------------------------|
|---------------------------------12-------|--------------10---9---10----9---------7-----|
|-----------------------9------------------|--11----9--------------11----9----9----7-----|
|------------------7---------9-------------|-----------------------11----9---------7-----|
|---------------------------------------9--|-----------------------9-----7---------5-----|
|-------12---------------------------------|---------------------------------------------|

|--5----7-----9----12---11--------9--------|---------------------------------------------|
|-------------10--------12---12---10-------|--10----9----------------10----9-------------|
|-------------9---------11--------11-------|-------------9----11---------------9----11---|
|------------------------------------------|-------------------------11----9-------------|
|-------------9---------11--------9--------|-----------------------------------11---12---|
|------------------------------------------|---------------------------------------------|

|---------------------------9--|
|--------------11----12--------|
|------------------------------|
|------------------------------|
|------------------------------|
|--9---------------------------|


|--10-----------------------------10-------|--9-------12-------------------9-------------|
|--------7-------10--------9----------9----|----10-------10-----10------------10---------|
|--9---------7-------7--------9----------9-|--------9--------9------11------------11-----|
|-----------------------9--------9---------|----------------------------11---------------|
|--------------------------7---------------|--0-----------------9------------------------|
|------------------------------------------|---------------------------------------------|

|--8---------------------------------------|---------------------------------------------|
|------7------10--------9--------7---------|--10--------10-------10-------12-------------|
|---------8-------8---------8-------8------|------11--------11------11--------11------10-|
|--7------------------7--------7--------7--|----------11-------11-------11-------11---11-|
|------------------------------------------|--9---------------------------------------11-|
|------------------------------------------|------------------------------------------9--|

|------9-----------------------------------|-------9--------------------------7----------|
|--7-------9------------10----10-----------|--7---------9------------10------------10----|
|--------------------6---------------------|----------------------6----------------------|
|---------------6-------------------7------|-----------------6---------------------------|
|----------8------------------9------------|------------8---------------------9----------|
|------------------------------------------|---------------------------------------------|

|--2-------------------------4----0--------|---------------------------------------------|
|-------------3------------------------3---|--5----------------------------7-------------|
|--------2--------2-----4------------------|--------------6----------------------7----6--|
|--0---------------------------------------|--------6---------6------8-------------------|
|------------------------------------------|--4----------------------9-------------------|
|------------------------------------------|---------------------------------------------|

                                                         Harm.>>>>>>>>>>>>>>>>>>>>>>>>>>>
|------7-----------------------------------|---------------------------------------------|
|-----------10----9-----7------------------|-------------12------------------------------|
|--7-------------------------10----8----10-|--11-----------------------------------------|
|------------------------------------------|-------------------------7-------------------|
|----------------------------------8-------|--9------------------------------------------|
|--7--------8-----------9------------------|---------------------------------------4-----|

|------------------------------------------|
|------------------------------------------|
|------------------------------------------|
|------------------------------------------|
|------------------------------------------|
|--2---------------------------------------|
Tap to rate this tab
 
# A B C D E F G H I J K L M N O P Q R S T U V W X Y Z