Song name
# A B C D E F G H I J K L M N O P Q R S T U V W X Y Z

Kunal Ganjawala - Tumse Yoon Milenge tab

tumse yoon milenge humne socha naa tha aurr yeh zindagi {twice}

e-----------------------------------------------------------------|
B------8-------8---10-10----------8-------------------------------|
G----9---9-7-9-----------9-7-9-10---10---10-10-10-7---7-10-9------|
D---------------------------------------------------10------------|
A-----------------------------------------------------------------|
E-----------------------------------------------------------------|

mehke gi tumhari bahon mein {twice again}

e------8-7--------------------------------------------------------|
B----------10---10---10-8-10--------------------------------------|
G--9-9--------9--------------10-9-7-------------------------------|
D-----------------------------------------------------------------|
A-----------------------------------------------------------------|
E-----------------------------------------------------------------|

i dnt think the abovew line was perfect... any suggestions?


tum tum the kahi the hamare kuch nahi

e-----------------------------------------------------------------|
B-------10--7-----------------------------------------------------|
G---9--9--9--9-10-9-9---------------------------------------------|
D---------------------7-10-10-10----------------------------------|
A-----------------------------------------------------------------|
E-----------------------------------------------------------------|

hum hum the kahi the tumhare kuch bhi nahi

e-----------------------------------------------------------------|
B-------10--7-----------8-8-8-------------------------------------|
G---9--9--9--9-10-9-9-9-------------------------------------------|
D-----------------------------------------------------------------|
A-----------------------------------------------------------------|
E-----------------------------------------------------------------|


itna chota jahan ab achanak hua

e-----------7-8-7--------------7---7------------------------------|
B--9-9-9-10-------10--7-7-7-10---10-10-8--------------------------|
G-----------------------------------------------------------------|
D-----------------------------------------------------------------|
A-----------------------------------------------------------------|
E-----------------------------------------------------------------|

khoye tum hamari raho mein... {same for aaye hum tumhari chao mein}

e--------13-12-10---12-10---10------------------------------------|
B--10-10---------10-------13---11-10-8----------------------------|
G-----------------------------------------------------------------|
D-----------------------------------------------------------------|
A-----------------------------------------------------------------|
E-----------------------------------------------------------------|


i hope the rest is d same tabbin wid diff lyrics... ENJOY

DHRUV
Tap to rate this tab
 
# A B C D E F G H I J K L M N O P Q R S T U V W X Y Z