Song name
# A B C D E F G H I J K L M N O P Q R S T U V W X Y Z

Kurban - Kirmis Kalbimi tab

 i think it was somthing like this:
e|--------------------|---------------------------------------|
B|--------------------|---------------------------------------|
G|---4h5p4--4---------|--4-6-6-6-4-4-----4h5p4---4------------|
D|---------7--7-6h7-4-|--------------6---------7---7-6h7-4----|
A|--------------------|----------------7----------------------|
E|--------------------|---------------------------------------|


          
e|---------------------------------------|--7-9-9-9-7-7--------|
B|------------------------------9p7-910--|--------------9------|
G|---4-6-6-6-4-4-6\9-8-8h9p8-------------|---------------------|
D|---------------------------------------|---------------------|
A|---------------------------------------|---------------------|
E|---------------------------------------|---------------------|

 
e|--7h8p7--7------|---------------------9----------------------|
B|-------10-10-9--|--5-7\9-9-7-9-910---10-9-7-7h9-9-7-7h9-7----|
G|----------------|--------------------------------------------|
D|----------------|--------------------------------------------|
A|----------------|--------------------------------------------|
E|----------------|--------------------------------------------|
Tap to rate this tab
# A B C D E F G H I J K L M N O P Q R S T U V W X Y Z