Song name
# A B C D E F G H I J K L M N O P Q R S T U V W X Y Z

Kurt Nilsen - Aud Lang Syne tab

"Auld Lang Syne" - Cover by Kurt Nilsen

Beautiful christmas song and quite easy to play. 

Standard tuning
Capo on 1. 


Only four chords used:

D:     000232
Bm:    024432
A:     002220
G:     320033



Intro:
          D       Bm                 x2
|----------------------0----------------------------------------------------|
|---------3----------3------------------------------------------------------|
|-------2---2---------------------------------------------------------------|
|-----0------------4--------------------------------------------------------|
|----------------2----------------------------------------------------------|
|---------------------------------------------------------------------------|

Vers: 

Should all............ be...................never............life
         D                    A                    Bm               G
|-----------0----------------------------------------0---------------3-----|
|-------3---------3--------------2-----------------------2--------------2--|
|----2----2----2-----2------2--------2------------4----4---4-----0----3--3-|
|--0----------------------2---2----2---2--------4---4----------0---0-------|
|-----------------------0---------------------2----------------------------|
|-------------------------------------------------------------3------------|

..all.................be...................auld......lang....syne
   D                    A                     G       A      D
|-----------0-------------------------------------------------------0-------|
|-------3---------3--------------2----------------2-------2-----3-------2---|
|----2----2----2-----2------2--------2----------0-------2-----2---2---3---3-|
|--0----------------------2---2----2---2------0-------2-----0---------------|
|-----------------------0---------------------------0-----------------------|
|-------------------------------------------3-------------------------------|


Repeat throughout the song. Good luck!
Tap to rate this tab
# A B C D E F G H I J K L M N O P Q R S T U V W X Y Z