Song name
# A B C D E F G H I J K L M N O P Q R S T U V W X Y Z

Kurt Vile - Beach On The Moon tab

-------------------------------------------------------------------------------
     Kurt Vile - Beach on the Moon
-------------------------------------------------------------------------------
Tabbed by:Uulog
E-mail:

Tuning:Standard with capo on 4th fret
    When he plays live he puts the capo on the 2nd. On the record he has it on the 4th. 
Slither up my brethren.

                         This part 4 times
e|-9----x---4---4--x--4--4--4--4--x-------------------------------------------|
B|-9----x---7---7--x--5--5--5--5--x-------------------------------------------|
G|---9--x---8---8--x--6--6--4--6--x-------------------------------------------|
D|---9--x---9---9--x--7--7--7--7--x-------------------------------------------|
A|----------------------------------------------------------------------------|
E|----------------------------------------------------------------------------|
                        Spices it up 4 times
e|-9-11-9---4---9--4---4--4---4--4---------------------------------------------|
B|-9-9--9---7---7--7---5--5---5--5---------------------------------------------|
G|-9-9--9---8---8--8---6--4h6p4--6---------------------------------------------|
D|---9--9---9---9--9---7--7---7--7---------------------------------------------|
A|-----------------------------------------------------------------------------|
E|-----------------------------------------------------------------------------|

  The rhythm on the verse is strange, almost ukelele like, with constant up-down strokes.
Putting some emphasis on the back to back palm mutes seems to bring it together, but any 
way you play it sounds good, so experiment.

e|-x-x-------7-7-7-x-------x-------x-x-4--4--4--4--4--4--x-------x-------x-x--|
B|-x-x-5-5-5-5-5-5-x-7-7-7-x-5-5-5-x-x-9--9--9--12-12-12-x-7-7-7-x-5-5-5-x-x--|
G|-x-x-6-6-6-4-4-4-x-8-8-8-x-6-6-6-x-x-10-10-10-13-13-13-x-8-8-8-x-6-6-6-x-x--|
D|-x-x-7-7-7-6-6-6-x-9-9-9-x-7-7-7-x-x-11-11-11-14-14-14-x-9-9-9-x-7-7-7-x-x--|
A|-x-x-7-7-7-7-7-7-x-9-9-9-x-7-7-7-x-x-11-11-11-14-14-14-x-9-9-9-x-7-7-7-x-x--|
E|-x-x-------------x-------x-------x-x-------------------x-------x-------x-x--|

    Then it's the first part, quickly followed by the second part twice, maintain 
constant strumming rhythm

e|-9---x-4-4-4-x-4-4-4-4-x-4-4-4-7-7-7-x-4-4-4-x-4-4-4-x-x-4-4-4-7-7-7-x-4-4-4-x-4-4-4-x-x--|
B|-9---x-7-7-7-x-5-5-5-5-x-5-5-5-5-5-5-x-7-7-7-x-5-5-5-x-x-5-5-5-5-5-5-x-7-7-7-x-5-5-5-x-x--|
G|---9-x-8-8-8-x-6-6-4-6-x-6-6-6-4-4-4-x-8-8-8-x-6-6-6-x-x-6-6-6-4-4-4-x-8-8-8-x-6-6-6-x-x--|
D|---9-x-9-9-9-x-7-7-7-7-x-7-7-7-6-6-6-x-9-9-9-x-7-7-7-x-x-7-7-7-6-6-6-x-9-9-9-x-7-7-7-x-x--|
A|-----x-------x---------x-7-7-7-7-7-7-x-9-9-9-x-7-7-7-x-x-7-7-7-7-7-7-x-9-9-9-x-7-7-7-x-x--|
E|-----x-------x---------x-------------x-------x-------x-x-------------x-------x-------x-x--|

   Then it starts all over again.
Now all you need is some deep reverb panned to the right and you're good to go!

   This is my first tab and i just want to say much props (if those still count for 
anything) to the UG community.
 Who needs lessons, just learn songs that you like to play, that's how the greats did 
it, and all they had was records!
So after moochin for the past decade I figured I'd give something back.
Enjoy
Tap to rate this tab
# A B C D E F G H I J K L M N O P Q R S T U V W X Y Z