Song name
# A B C D E F G H I J K L M N O P Q R S T U V W X Y Z

Kurt Vile - Peeping Tomboy tab

Kurt Vile - Peeping Tomboy

I learned this song with help of catrafts tab and listening to the song itself. Had to
improve the tab though ;) Think this one is pretty spot on.
Great song! And props to Catrafts!

Tuning GGDGBD

Use this chord and add pinky (for hammers and pulls on the 5th fret) for the first part 
of the verse.
D (E) 4
B (B) 3
G (G) 4
D (D) 0
G (A) 0
G (E) 0

Use index finger on whole fret for the rest of the song and add pinky (and ring finger
if you like) for the chorus.

Play the bassline with thumb throughout the whole song:
String 5 4 5 4 5 4 5 4 5 4 ...etc for the verse
String 6 5 6 5 6 5 6 5 6 5 ...etc for the chorus and bridge

Intro/Verse (repeat x times)

D-5p4-------4---------------------------------------------------|
B-------3h5-------3-------0-------2---------------0-------------|
G-------------------------4-------2-----2---------0-----0-------|
D-----0-------0-------0-------0-------2-------2-------0-------0-|
G-0-------0-------0-------0-------2-------2-------0-------0-----|
G---------------------------------------------------------------|

D-5p4-------4---------------------------------------------------|
B-------3h5-------3-------0-------2---------------0-------------|
G-------------------------4-------2-----2---------0-------------|
D-----0-------0-------0-------0-------2-------2-------0-------0-|
G-0-------0-------0-------0-------2-------2-------0-------0-----|
G---------------------------------------------------------------|

First part of verse is played once before chorus

D-5p4-------4-------------------|
B-------3h5-------3-------0-----|
G-------------------------4-----|
D-----0-------0-------0-------0-|
G-0-------0-------0-------0-----|
G-------------------------------|

Chorus A (repeat x times)

D-8-----------------------7-------5-----------------------------|
B-5-----------------------5-------5-----------------------------|
G---------------------------------------------------------------|
D---------------------------------------------------------------|
G-----5-------5-------5-------5-------5-------5-------5-------5-|
G-5-------5-------5-------5-------5-------5-------5-------5-----|

Chorus B (repeat x times)

D---------------------------------0---------------0---------------0-----------|
B-2---------------0---------------------0---------------0---------------0-----|
G-2-----2---------0-----0-----------------------------------------------------|
D-----------------------------------------------------------------------------|
G-----2-------2-------0-------0-------0-------0-------0-------0-------0-----0-|
G-2-------2-------0-------0-------0-------0-------0-------0-------0------0----|

Bridge chorus/verse

D-5---------------2---------------2---------------2-------------|
B-5-----5---------2-----2---------2-----2---------2-----2-------|
G---------------------------------------------------------------|
D---------------------------------------------------------------|
G-----5-------5-------2-------2-------2-------2-------2-------2-|
G-5-------5-------2-------2-------2-------2-------2-------2-----|
Tap to rate this tab
# A B C D E F G H I J K L M N O P Q R S T U V W X Y Z