Song name
# A B C D E F G H I J K L M N O P Q R S T U V W X Y Z

Kut U Up - S And M Dens tab

			     S&M DENS - KUT U UP

Email: XxStock7xX@aol.com

Tuning: Standard

Theres 3 different guitars playing intros, I tabbed out the main one.
 |           E5           |         C5        |            G5           |
e|-----------------------------------------------------------------------|
B|-------12-------12----12------12-----12---12---------12-------12----12-|
G|-12-12----12-12----12-----9-9----9-9----9------------------------------|
D|-----------------------------------------------12-12----12-12----12----|
A|-----------------------------------------------------------------------|
E|-----------------------------------------------------------------------|
 |           A5           |
e|-------------------------|
B|-------12-------12----12-|
G|-------------------12----|
D|-10-10----12-12----------|
A|-------------------------|
E|-------------------------|


( listen to song for rhythm )
e|---------------------------------------------------------------------------|
B|-7/9-9-9-9-7-7\4-4-4-4-4-4\2-2-2-2-2-2/4-4-5-4-5-4-------------------------|
G|---------------------------------------------------------------------------|
D|---------------------------------------------------------------------------|
A|---------------------------------------------------------------------------|
E|---------------------------------------------------------------------------|


e|---------------------------------|-----------------------------------------|
B|---------------------------------|-----------------------------------------|
G|---------------------------------|-----------------------------------------|
D|-------4-------4-----2-----------|-------4-------4-----2-------------------|
A|-----2-------2---------2---------|-----2-------2---------2-----------------|
E|-0-0-----0-0-----0-0-----3-3-5-5-|-0-0-----0-0-----0-0-----333-3-3-3-------|

www.kutuup.com-buy "Pulled-Over" if you have not already
Tap to rate this tab
 
# A B C D E F G H I J K L M N O P Q R S T U V W X Y Z