Song name
# A B C D E F G H I J K L M N O P Q R S T U V W X Y Z

Kut U Up - Waynewright tab

			     WAYNEWRIGHT - KUT U UP

Email: XxStock7xX@aol.com
Tuning: Standard

 4x5   
e|-----------------------------------
B|-----------------------------------
G|-----------------------------------
D|------------xxx--------------------
A|-33-333-333-xxx-2------------------
E|-11-111-111-xxx--------------------
  (v^ ^v^ ^v^=guitar picking rhythem)

    G5      B/F#        C/G
e|-------|---------|---------|
B|-------|---------|---------|
G|-------|-4-4-4-4-|-5-5-5-5-|
D|-5--5--|-x-x-x-x-|-x-x-x-x-|
A|-5--5--|-2-2-2-2-|-3-3-3-3-|
E|-3--3--|-2-2-2-2-|-3-3-3-3-|
     G5
e|---------|
B|---------|
G|---------|
D|-5-5-5-5-| x8
A|-5-5-5-5-|
E|-3-3-3-3-|

--------|
 v=down |
 ^=up   |
--------|

www.kutuup.com
Buy "Pulled Over" and support Kut U Up
Tap to rate this tab
 
# A B C D E F G H I J K L M N O P Q R S T U V W X Y Z