Song name
# A B C D E F G H I J K L M N O P Q R S T U V W X Y Z

Kut U Up - Night At The Beach tab

			     Night At The Beach - Kut U Up

Email: XxStock7xX@aol.com
Tuning: Standard

This is the intro on 2 guitars
Guitar one (palm muted)
         A5                 A5                D5                D5
e|-----------------|-----------------|-----------------|-----------------|
B|-----------------|-----------------|-----------------|-----------------|
G|-----------------|-----------------|-----------------|-----------------|
D|-----------------|-----------------|-7-7-7-7-7-7-7-7-|-7-7-7-7-7-7-7-7-|
A|-7-7-7-7-7-7-7-7-|-7-7-7-7-7-7-7-7-|-5-5-5-5-5-5-5-5-|-5-5-5-5-5-5-5-5-|
E|-5-5-5-5-5-5-5-5-|-5-5-5-5-5-5-5-5-|-----------------|-----------------|

Guitar two
e|---------------|----------|---------------|----------|
B|---2---2---2---|-5-2------|---2---2---2---|-5-2------|
G|-4---4---4---4-|-----4----|-4---4---4---4-|-----4----|
D|---------------|----------|---------------|----------|
A|---------------|----------|---------------|----------|
E|---------------|----------|---------------|----------|

Guitar one (open)
         A5                 A5                D5                D5
e|-----------------|-----------------|-----------------|-----------------|
B|-----------------|-----------------|-----------------|-----------------|
G|-----------------|-----------------|-----------------|-----------------|
D|-----------------|-----------------|-7-7-7-7-7-7-7-7-|-7-7-7-7-7-7-7-7-|
A|-7-7-7-7-7-7-7-7-|-7-7-7-7-7-7-7-7-|-5-5-5-5-5-5-5-5-|-5-5-5-5-5-5-5-5-|
E|-5-5-5-5-5-5-5-5-|-5-5-5-5-5-5-5-5-|-----------------|-----------------|

Guitar two
e|-------------|-------------|-555-222-----|------------|
B|---2---2---2-|---2---2---2-|---------555-|-333-22-----|
G|-4---4---4---|-4---4---4---|-------------|-------4-1--|
D|-------------|-------------|-------------|------------|
A|-------------|-------------|-------------|------------|
E|-------------|-------------|-------------|------------|

www.kutuup.com
Buy "Pulled-Over"-support Kut U Up
Tap to rate this tab
# A B C D E F G H I J K L M N O P Q R S T U V W X Y Z