Song name
# A B C D E F G H I J K L M N O P Q R S T U V W X Y Z

Kut U Up - Make It Out Alive tab

			     Make It Out Alive - Kut U Up

Email: XxStock7xX@aol.com
Tuning: Standard

Intro
                  Bb                                   C
e|-----------------|-----------------|-----------------|-----------------|
B|-2-2-2-2-2-5-5-5-|-7-7-7-7-7-5-5-5-|-2-2-2-2-2-5-5-5-|-7-7-7-7-7-5-5-5-|
G|-----------------|-----------------|-----------------|-----------------|
D|-----------------|-----------------|-----------------|-----------------|
A|-----------------|-----------------|-----------------|-----------------|
E|-----------------|-----------------|-----------------|-----------------|
                   G
e|-----------------|-----------------|
B|-2-2-2-2-2-5-5-5-|-7-7-7-7-7-5-5-5-|
G|-----------------|----------------.|
D|-----------------|----------------.|
A|-----------------|-----------------|
E|-----------------|-----------------|

Part A
                  Bb                                   C
e|-----------------|-----------------|-----------------|-----------------|
B|-----------------|-----------------|-----------------|-----------------|
G|-----------------|-----------------|-----------------|-----------------|
D|-3-3-3-3-3-3-3-3-|-3-3-3-3-3-3-3-3-|-5-5-5-5-5-5-5-5-|-5-5-5-5-5-5-5-5-|
A|-1-1-1-1-1-1-1-1-|-1-1-1-1-1-1-1-1-|-3-3-3-3-3-3-3-3-|-3-3-3-3-3-3-3-3-|
E|-----------------|-----------------|-----------------|-----------------|
                   G
e|-----------------|-----------------|
B|-----------------|-----------------|
G|-----------------|----------------.|
D|-----------------|----------------.|
A|-5-5-5-5-5-5-5-5-|-5-5-5-5-5-5-5-5-|
E|-3-3-3-3-3-3-3-3-|-3-3-3-3-3-3-3-3-|

Part B
          D                 Bb                         G
e|-----------------|-----------------|-----------------|-----------------|
B|-----------------|-----------------|-----------------|-----------------|
G|-----------------|-----------------|-----------------|-----------------|
D|-7-7-7-7-7-7-7-7-|-3-3-3-3-3-3-3-3-|-----------------|-----------------|
A|-5-5-5-5-5-5-5-5-|-1-1-1-1-1-1-1-1-|-5-5-5-5-5-5-5-5-|-5-5-5-5-5-5-5-5-|
E|-----------------|-----------------|-3-3-3-3-3-3-3-3-|-3-3-3-3-3-3-3-3-|

Listen to the song for when to play the parts

www.kutuup.com
Buy "Pulled-Over" support Kut Up
Tap to rate this tab
 
# A B C D E F G H I J K L M N O P Q R S T U V W X Y Z