Guitaretab - guitar tabs
Song name
# A B C D E F G H I J K L M N O P Q R S T U V W X Y Z

Kutless - Overcoming Me tab

Overcoming Me
Kutless

Intro

1st Guitar 
d|-----------------------------------------------------------------------|
A|--------------------------------------------0---0----------------------|
F|------5-5---------5-5---------5-5---------5---5------------------------|
C|----3-----3-----3-----3-----2-----2-----2------------------------------| X 2
G|--5-----------5-----------0-----------0--------------------------------|
C|-----------------------------------------------------------------------|
                                        X	
2nd Guitar starting at x
d|-----------------------------------------------------------------------|
A|-----------------------------------------------------------------------|
F|-----------------------------------------------------------------------|
C|-7-7-75-5-5-3333333-0000000-7-7-7-x-x-7-7-7-7-3333333-5555555---------|
G|-7-7-75-5-5-3333333-0000000-7-7-7-x-x-7-7-7-7-3333333-5555555---------|
C|-7-7-75-5-5-3333333-0000000-7-7-7-x-x-7-7-7-7-3333333-5555555---------|
 
verse

1st guitar           	
d|-----------------------------------------------------------------------|
A|--------------------------------------------0---0----------------------|
F|------5-5---------5-5---------5-5---------5---5------------------------|
C|----3-----3-----3-----3-----2-----2-----2------------------------------|X 4
G|--5-----------5-----------0-----------0--------------------------------|
C|-----------------------------------------------------------------------|
                                        x
2nd guitar verse with 1st guitar
d|-----------------------------------------------------------------------|
A|-----------------------------------------------------------------------|
F|--7-----------7---------------------------------5----------------------|
C|--7-----------7-----------7----------7----------5----------------------|X 3
G|--5-----------5-----------7----------7----------3----------------------|
C|--------------------------7----------7---------------------------------|

2nd guitar start at x from first guitar verse on fourth time
d|-----------------------------------------------------------------------|
A|-----------------------------------------------------------------------|
F|-----------------------------------------------------------------------|
C|-7-7-75-5-5-3333333-0000000-7-7-7-x-x-7-7-7-7-3333333-5555555---------|
G|-7-7-75-5-5-3333333-0000000-7-7-7-x-x-7-7-7-7-3333333-5555555---------|
C|-7-7-75-5-5-3333333-0000000-7-7-7-x-x-7-7-7-7-3333333-5555555---------|


Chorus

1st guitar
d|-----------------------------------------------------------------------|
A|-----------------------------------------------------------------------|
F|----------------12-12-12-12-11-11-11-14-14-14--------------------------|
C|-----------------------------------------------------------------------|
G|----------------10-10-10-10-9--9--9-12-12-12--------------------------|
C|-----------------------------------------------------------------------|
                  x
2nd guitar
d|-----------------------------------------------------------------------|
A|-----------------------------------------------------------------------|
F|-----------------7----------7------------------------------------------|
C|-7777777-3333333-7----------7------------------------------------------|
G|-7777777-3333333-5----------5------------------------------------------|
C|-7777777-3333333-------------------------------------------------------|
                   x
[ Tab from: http://www.guitaretab.com/k/kutless/110873.html ]
1st guitar
d|-----------------------------------------------------------------------|
A|-----------------------------------------------------------------------|
F|----------------12-12-12-12---------------12-12-12-12-11-11-11-14-14-14|
C|-----------------------------------------------------------------------|
G|----------------10-10-10-10---------------10-10-10-10-9-9--9-12-12-12|
C|-----------------------------------------------------------------------|

2nd guitar
d|-----------------------------------------------------------------------|
A|-----------------------------------------------------------------------|
F|-----------------7-------------------------7---------7-----------------|
C|-7777777-3333333-7---------7777777-3333333-7---------7-----------------|
G|-7777777-3333333-5---------7777777-3333333-5---------5-----------------|
C|-7777777-3333333-----------7777777-3333333-----------------------------|

2nd guitar
d|-----------------------------------------------------------------------|
A|-----------------------------------------------------------------------|
F|-----------------7-----------------------------------------------------|
C|-7777777-3333333-7-----------------------------------------------------|
G|-7777777-3333333-5-----------------------------------------------------|
C|-7777777-3333333-------------------------------------------------------|

2nd verse

1st guitar           	
d|-----------------------------------------------------------------------|
A|--------------------------------------------0---0----------------------|
F|------5-5---------5-5---------5-5---------5---5------------------------|
C|----3-----3-----3-----3-----2-----2-----2------------------------------|X 4
G|--5-----------5-----------0-----------0--------------------------------|
C|-----------------------------------------------------------------------|
                                        x

2nd guitar star start on the 3rd time of first guitar
d|-----------------------------------------------------------------------|
A|-----------------------------------------------------------------------|
F|--7-----------7---------------------------------5----------------------|2x
C|--7-----------7-----------7----------7----------5----------------------|
G|--5-----------5-----------7----------7----------3----------------------|
C|--------------------------7----------7---------------------------------|


2nd guitar start at x from first guitar verse on fourth time
d|-----------------------------------------------------------------------|
A|-----------------------------------------------------------------------|
F|-----------------------------------------------------------------------|
C|-7-7-75-5-5-3333333-0000000-7-7-7-x-x-7-7-7-7-3333333-5555555---------|
G|-7-7-75-5-5-3333333-0000000-7-7-7-x-x-7-7-7-7-3333333-5555555---------|
C|-7-7-75-5-5-3333333-0000000-7-7-7-x-x-7-7-7-7-3333333-5555555---------|



BACK TO CHORUS


BRIDGE
1st guitar sub for synth solo
d|-------------------------12-|
A|----------------10-12-13----|
F|--------9-10-12-------------|
C|-7-9-10---------------------|
G|----------------------------|
C|----------------------------|


2nd guitar
d|------------------------------------------------------------------------|
A|------------------------------------------------------------------------|
F|-77-777-777-777-777-777-777-777-----------------------------------------|
C|-77-777-777-777-777-777-777-777-77-777-777-777-777-777-777-777----------|
G|-55-555-555-555-555-555-555-555-77-777-777-777-777-777-777-777----------|
C|--------------------------------77-777-777-777-777-777-777-777----------|

                                   I cant stop3x you from overcoming me
d|------------------------------------------------------------------------|
A|------------------------------------------------------------------------|
F|-77-777-777-777-777-777-777-777-----------------------------------------|
C|-77-777-777-777-777-777-777-777-77-777-777-777-333-333-333-333----------|
G|-55-555-555-555-555-555-555-555-77-777-777-777-333-333-333-333----------|
C|--------------------------------77-777-777-777-333-333-333-333----------|

Star chorus On X both guitars
Related for Overcoming Me tab