Song name
# A B C D E F G H I J K L M N O P Q R S T U V W X Y Z

Kutless - The Rescue tab

-------------------------------------------------------------------------------
			     THE RESCUE - Kutless
-------------------------------------------------------------------------------
Tabbed by:evilsqueaky
Email:evilsqueaky1@aol.com

Tuning:Db Ab Db Gb Bb Eb

Intro: (Harmonics and such)

Verse

eb|------------------------------------------------------------------------|
Bb|------------------------------------------------------------------------|
Gb|------------------------------------------------------------------------|
Db|------------------------------------------------------------------------|x2
Ab|------------------------------------------------------------------------|
Db|-0-0-0-0-0-0-0-0-10-10-10-10-10-10-10-10-5-5-5-5-5-5-5-5-3-3-3-3-6-6-6-6|

Chorus

e|-------------------------------------------------------------------------------|
B|-------------------------------------------------------------------------------|
G|-------------------------------------------------------------------------------|
D|-0-0-0-0-0-0-0-0-3-3-3-3-3-3-3-3-8-8-8-8-5-5-5-5-------------------------------|x2
A|-0-0-0-0-0-0-0-0-3-3-3-3-3-3-3-3-8-8-8-8-5-5-5-5-------------------------------|
E|-0-0-0-0-0-0-0-0-3-3-3-3-3-3-3-3-8-8-8-8-5-5-5-5-0-000-5-3-5-3-0-000-5-3-5-10--|

Bridge
Guitar 1
e|---------------------------------------------------------------------------|
B|-3----5----6----5----3----5----6----5--------------------------------------|
G|---------------------------------------------------------------------------|
D|---------------------------------------------------------------------------|
A|---------------------------------------------------------------------------|
E|---------------------------------------------------------------------------|

Guitar 2
e|---------------------------------------------------------------------------|
B|---------------------------------------------------------------------------|
G|---------------------------------------------------------------------------|
D|---------------------------------------------------------------------------|x4
A|---------------------------------------------------------------------------|
E|-0-000-5-3-5-3-0-000-5-3-5-10----------------------------------------------|

e|---------------------------------------------------------------------------|
B|---------------------------------------------------------------------------|
G|---------------------------------------------------------------------------|
D|-00-0000-0000-0000-0000-0000-----------------------------------------------|
A|-00-0000-0000-0000-0000-0000-530--530--530---530---530---530--530---530----|
E|-00-0000-0000-0000-0000-0000----0----0-----0-----0-----0---0-----0-----0---|
   xx xxxx xxxx xxxx xxxx xxxx
e|---------------------------------------------------------------------------|
B|---------------------------------------------------------------------------|
G|---------------------------------------------------------------------------|
D|-0---3---------------------------------------------------------------------|
A|-0---3---------------------------------------------------------------------|
E|-0---3---------------------------------------------------------------------|

Order:
Verse
Chorus
Verse
Chorus
Bridge
Chorus


| /  slide up
| \  slide down
| h  hammer-on
| p  pull-off
| ~  vibrato
| +  harmonic
| x  Mute note

I tried my best. I wasn't sure about a lot stuff in the bridge, but I think it's fine. I 
like comments!
Tap to rate this tab
# A B C D E F G H I J K L M N O P Q R S T U V W X Y Z