Song name
# A B C D E F G H I J K L M N O P Q R S T U V W X Y Z

Kutless - To Know That Youre Alive tab

(h - hammer on)
(p - pull off )
(* - palm mute)

Intro
e|--------------------------------------|
B|--------------------------------------|
G|--------------------------------------| x2
D|--------------------------------------|
A|-3333333333333333p22222222-555555h6p5-|
E|--------------------------------------|

Verse 1
e|--------------------------------------|
B|--------------------------------------|
G|--------------------------------------| x2
D|--------------------------------------|
A|-3333333333333333p22222222-555555h6p5-|
E|--------------------------------------|

Pre Chorus 1
e|-------------------|
B|-------------------|
G|-------------------| x4
D|-0-----0-0-----0-0-|
A|-0-9~9~0-0-9~9~0-0-|
E|-0-----0-0-----0-0-|
   *     * *
Chorus 1
e|------------------------------------|
B|------------------------------------|
G|-5555557888888888-33333333----------| x2
D|-5555557888888888-33333333-55555555-|
A|-3333335666666666-11111111-55555555-|
E|---------------------------55555555-|

Verse 2
e|--------------------------------------|
B|--------------------------------------|
G|--------------------------------------| x2
D|--------------------------------------|
A|-3333333333333333p22222222-555555h6p5-|
E|--------------------------------------|

Pre Chorus 2
e|-------------------|
B|-------------------|
G|-------------------| x4
D|-0-----0-0-----0-0-|
A|-0-9~9~0-0-9~9~0-0-|
E|-0-----0-0-----0-0-|
   *     * *

Chorus 2
e|------------------------------------|
B|------------------------------------|
G|-5555557888888888-33333333----------| x4
D|-5555557888888888-33333333-55555555-|
A|-3333335666666666-11111111-55555555-|
E|---------------------------55555555-|

Bridge Pt. 1
e|-----------------------------------|
B|-----------------------------------|
G|-----------------------------------| x2
D|-0-000-0-0-000-0-0-000-0-3-0-3-5b6-|
A|-0-000-0-0-000-0-0-000-0-3-0-3-5b6-|
E|-0-000-0-0-000-0-0-000-0-3-0-3-5b6-|
   * *** * * *** * * *** * * * * * *

Bridge Pt. 2
e|---------------------------------|
B|---------------------------------|
G|---------------------------------| x4
D|-0-xx-0-0-xx-0-0-xx-0------------|
A|-0-xx-0-0-xx-0-0-xx-0-9-11b12~~~-|
E|-0-xx-0-0-xx-0-0-xx-0------------|

Chorus 3
e|------------------------------------|
B|------------------------------------|
G|-5555557888888888-33333333----------| x4
D|-5555557888888888-33333333-55555555-|
A|-3333335666666666-11111111-55555555-|
E|---------------------------55555555-|

Ending
e|---------------------------------|-----------------------------------|
B|---------------------------------|-----------------------------------|
G|---------------------------------|-----------------------------------|
D|-0-xx-0-0-xx-0-0-xx-0------------|-0-xx-0-0-xx-0-0-xx-0--------------|
A|-0-xx-0-0-xx-0-0-xx-0-9-11b12~~~-|-0-xx-0-0-xx-0-0-xx-0-999-11b12~~~-|
E|-0-xx-0-0-xx-0-0-xx-0------------|-0-xx-0-0-xx-0-0-xx-0--------------|

e|---------------------------------|-----------------|
B|---------------------------------|-----------------|
G|---------------------------------|-----------------|
D|-0-xx-0-0-xx-0-0-xx-0------------|-0-xx-0-0-xx-0-0-|
A|-0-xx-0-0-xx-0-0-xx-0-9-11b12~~~-|-0-xx-0-0-xx-0-0-|
E|-0-xx-0-0-xx-0-0-xx-0------------|-0-xx-0-0-xx-0-0-|
Tap to rate this tab
# A B C D E F G H I J K L M N O P Q R S T U V W X Y Z