Guitaretab - guitar tabs
Song name
# A B C D E F G H I J K L M N O P Q R S T U V W X Y Z

Kutless - Passion tab

intro: guitar 1
eb-------------------------------------------->
Bb--------------------------5---------5------->
Gb--5-0-4--5-0-5-0-4--5-0----4--5------4--5--->
Db-3~~--------5~~----------5---------5-------->
Ab------------------------0~~----0--0~~----0-->
Db-------------------------------------------->

verse 1: guitar 1
eb-------------------------------------------->
Bb--------------------------5---------5------->
Gb--5-0-4--5-0-5-0-4--5-0----4--5------4--5---> repeat
Db-3~~--------5~~----------5---------5-------->
Ab------------------------0~~----0--0~~----0-->
Db-------------------------------------------->
Within my mind's eye Flickering from the past

verse 1: guitar 1
eb-------------------------1--3~~------------->
Bb-------------------------------------------->
Gb--5-0-4--5-0-5-0-4--5-0--------------------->
Db-3~~--------5~~---------0~~----------------->
Ab-------------------------------------------->
Db-------------------------------------------->
Come images that terrify and calm A paradox in me
[ Tab from: http://www.guitaretab.com/k/kutless/133982.html ]
chorus: guitar 2
eb------------------------------------------------->
Bb------------------------------------------------->
Gb-22222-------------------22222------------------->
Db-22222-00000-33333-55555-22222-00000-33333-55555->
Ab-00000-00000-33333-55555-00000-00000-33333-55555->
Db-------00000-33333-55555-------00000-33333-55555->
Nail pierced hands they run with blood A splitting brow forced by the
thorns His face is writhing with the pain yet it's comforting to me

---REPEAT INTRO

verse 2: guitar 1
eb-------------------------------------------->
Bb--------------------------5---------5------->
Gb--5-0-4--5-0-5-0-4--5-0----4--5------4--5---> repeat
Db-3~~--------5~~----------5---------5-------->
Ab------------------------0~~----0--0~~----0-->
Db-------------------------------------------->
He chose to give it all Jesus endured the pain

verse 1: guitar 1
eb-------------------------1-3~~-----3~~------>
Bb-------------------------------------------->
Gb--5-0-4--5-0-5-0-4--5-0--------------------->
Db-3~~--------5~~---------0~~----------------->
Ab-------------------------------------------->
Db-------------------------------------------->
Paying a debt I owed and created a paradox in me

---REPEAT CHORUS

bridge: guitar 2
eb------------------------------------->
Bb------------------------------------->
Gb-----------5~~-----------------5~~--->
Db-0~~--3~~--5~~--5~~--0~~--3~~--5~~--->
Ab-0~~--3~~--3~~--5~~--0~~--3~~--3~~--->
Db-0~~--3~~-------5~~--0~~--3~~-------->
And in my heart I know that You're the only one Who could of came and died,
a sacrifice As You’re God's only Son

---REPEAT CHORUS
---REPEAT CHOURS
Related for Passion tab
×
Passion