Song name
# A B C D E F G H I J K L M N O P Q R S T U V W X Y Z

Kutless - Legacy tab

Band: Kutless
Album: Hearts of the Innocent
Song: Legacy
Year: 2006
Tabbed by: Josh

Tuning:Drop C#(Drop D then half a step down)


/slide
*palm mute
~let ring

note that two guitars are playing the same thing until the bridge

heavy distortion throughout
Intro/
------------------------------------------------------------|
------------------------------------------------------------|
----------------5------5--x3--------------------------------|
-057--0345--00--5--00--5--------057--0345--00--6--00--6-----|
-057--0345--00--3--00--3--------057--0345--00--5--00--5-----|
-057--0345--00-----00-----------057--0345--00-----00--------|
                                           **     **

Verse/
------------------------------------------------------------|
------------------------------------------------------------|
-------------------------------------------5------5---------|
-0000-345--00--5/3--00--3/0--0000-345--00--5--00--5--x2-----|
-0000-345--00--5/3--00--3/0--0000-345--00--3--00--3---------|
-0000-345--00--5/3--00--3/0--0000-345--00-----00------------|
 ****       *       **       ****


Pre-chorus/
-------------------------------------------|
-1~----1~----------------------------------|
-3~----3~-555555555555555------------------|
-3~-5~-3~-333333333333333------------------|
-1~-5~-1~-333333333333333------------------|
----5~-------------------------------------|

Chorus/
-------------------------------------------------------------------|
-------------------------------------------------------------------|
-77777777--55555-------33333333------------55------3-------5-------|
-77777777--55555--555--33333333--000--333--55--x2--3--x15--5--x15--|
-55555555--33333--555--11111111--000--333--33------1-------3-------|
------------------555------------000--333--------------------------|

Pre-verse/
------------------------------------------------------------------------|
------------------------------------------------------------------------|
----------------5------5------------------------------------------------|
-057--0345--00--5--00--5--057--0345--00--6--00--6-----------------------|
-057--0345--00--3--00--3--057--0345--00--5--00--5-----------------------|
-057--0345--00-----00-----057--0345--00-----00--------------------------|
                                     **     **

Play Verse
Play Pre-chorus
Play Chorus

Bridge/

Rhythm
-------------------------------------------------------------------|
-pick softly-------------------------------------------------------|
-------------------------------------------------------------------|
-5~-3~---------5~-3~---------5~-3~---------5~-3~-2~----------------|
-3~-1~-0~-5-3--3~-1~-0~-5-3--3~-1~-0~-5-3--3~-1~-0~----------------|
-------0~-5-3--------0~-5-3--------0~-5-3--------------------------|

Lead
-----------------------------------------------------------------------------|
-13~--10~--8~--6/13~--x3---13~--14~--15-then play build-up simultaneously----|
-----------------------------------------------------------------------------|
-----------------------------------------------------------------------------|
-----------------------------------------------------------------------------|
-----------------------------------------------------------------------------|

Pre-chorus build-up with a wah wah pedal
--------------------------------------------------------------------|
--------------------------------------------------------------------|
----------------55--------------------------------------------------|
-057--0345--00--55--x3--057--0345--00-6---00--6---------------------|
-057--0345--00--33------057--0345--00-5---00--5---------------------|
-057--0345--00----------057--0345--00-----00------------------------|
                                   **     **

Play Chorus


Outro/
--------------------------------------------------------------------|
--------------------------------------------------------------------|
-------------3333--555--22--------------3333--222--555--------------|
-0000--3333--3333--555--22--0000--3333--3333--222--555--------------|
-0000--3333--1111--333--00--0000--3333--1111--000--333--------------|
-0000--3333-----------------0000--3333------------------------------|


There you go! It's exactly like the recording because every note and chord syncs exactly 
the song if you play in the correct time. It took about an hour and a half to get 
down. I hope you enjoy!
Tap to rate this tab
# A B C D E F G H I J K L M N O P Q R S T U V W X Y Z