Guitaretab - guitar tabs
Song name
# A B C D E F G H I J K L M N O P Q R S T U V W X Y Z

Kutless - It Came Upon A Midnight Clear tab

-------------------------------------------------------------------------------
		It Came Upon A Midnight Clear - Kutless
-------------------------------------------------------------------------------
Tabbed by:matts4reel
Email:matt.rumfellow@gmail.com

Tuning:Eb,Ab,Db,Gb,Bb,Eb
For the intro, you just play an Am to an Asus twice before you go into the verse.
Verse: Am, G/Esus?weird chord then Am, E7,/
                                      /
Am, weird chord, Asus, E7, Am /
                                                                                   x2
Then Emaj, Am, C, Dm, G /

Am, weird chord, Asus, E7, Am /
 U play that whole thing again
Then comes the infamous solo
Solo: Acoustic
e|---17//---19//-------20//---19-20---24//--19//---17//----20--19------------|
B|-----17//-----17//---------------------------------------------------------|
G|---------------------------------------------------------------------------|
D|---------------------------------------------------------------------------|
A|---------------------------------------------------------------------------|
E|---------------------------------------------------------------------------|
[ Tab from: http://www.guitaretab.com/k/kutless/162702.html ]
e|---17//---------19//---------20//---24-20-19-20-19-17----------------------|
B|--------17//----------17//----------------------------------15-17//--------|
G|---------------------------------------------------------------------------|
D|---------------------------------------------------------------------------|
A|---------------------------------------------------------------------------|
E|---------------------------------------------------------------------------|
  Part 2
e|-----------------------------------------------------------------------------|
B|--------------------------------------------------------------------8--------|
G|-----7h9-9-------------------------5h7-5--------------------7letring---------|
D|----------------------6-7---9-10-----------10-9-7-9-7-5----------------------|
A|--------------7-7-9----------------------------------------------------------|
E|-----------------------------------------------------------------------------|

e|-----------------------------------------------------------------------------|
B|-----------------------------------------------------------------------------|
G|-------------9---7-----------------------------------------------------------|
D|-----7--10----9---10-7--5-5h75-5-5-7-7ó9h109----------7----------------------|
A|----------------------------------------------------------10---7-------------|
E|-----------------------------------------------------------------------------|

e|------------------------------------------9-------------------------------|
B|----------------------------------5--8------------------------------------|
G|-----------------------------5-7------------------------------------------|
D|----------------------5-7-------------------------------------------------|
A|----------------5-7------7------------------------------------------------|
E|----0-5-3-5-8-------------------------------------------------------------|
     Play verse again and come into outro
I havenít figured it out yet, sorry.
| /  slide up
| \  slide down
| h  hammer-on
| p  pull-off
| ~  vibrato
| +  harmonic
| x  Mute note
| // tremolo
===============================================================================
Related for It Came Upon A Midnight Clear tab