Guitaretab - guitar tabs
Song name
# A B C D E F G H I J K L M N O P Q R S T U V W X Y Z

Kutless - New Years Vow tab

-------------------------------------------------------------------------------
			     Vow - Kutless
-------------------------------------------------------------------------------
Tabbed by: Bryan H
Email: bobdarocker34@aol.com

I'm just posting this bcuz I disagree with the other intros posted alredy... this is how 
think it goes. No offense to the others - those are good too. ha

Tuning: Drop D

\ Slide Down
/ Slide Up
~ Let Ring
) Strum til Chord Change
[ Tab from: http://www.guitaretab.com/k/kutless/175311.html ]
Intro* This is pretty darn close
e|-------------------------------------------------------------------------|
B|-------------------------------------------------------------------------|
G|-------------------------------------------------------------------------|
D|----------10-----------6-10-6-------5-9-5----8~-88-----------------------|
A|----10-------10------6--------6\5--5------5/-8~-88-----------------------|
D|-10----10-------10\6-------------5-----------8~-88-----------------------|

Chorus
e|-------------------------------------------------------------------------|
B|-------------------------------------------------------------------------|
G|-------------------------------------------------------------------------|
D|-10)-6)-1)-8)------------------------------------------------------------|
A|-10)-6)-1)-8)------------------------------------------------------------|
D|-10)-6)-1)-8)------------------------------------------------------------|
Related for New Years Vow tab