Song name
# A B C D E F G H I J K L M N O P Q R S T U V W X Y Z

Kutless - Troubled Heart tab

Help us improve GuitareTab! Take a short survey!
-------------------------------------------------------------------------------
			    TROUBLED HEART - Kutless
-------------------------------------------------------------------------------
Tabbed by: x_invincible_x
Email: legend_invincible@yahoo.com

Tuning: Drop D

The second guitar has some echo to it. I'm 99% sure this is correct.
Feel free to rate and comment.

   Gtr. 1
e|---------------------------------------------------------------------------|
B|---------------------------------------------------------------------------|
G|---------------------------------------------------------------------------|
D|---------------------------------------------------------------------------|
A|---------------------------------------------------------------------------|
D|--2-2-2-2-2-2-2-2-2-2-2-2-2-2-2-2-0-0-0-0-0-0-0-0-5-5-5-5-5-5-5-5----------|
 |                                                                           |
 | Gtr. 2                                                                    |
e|----------7---5----10---------7-----------7---5--------3------0------------|
B|---------------------------------------------------------------------------|
G|---------------------------------------------------------------------------|
D|---------------------------------------------------------------------------|
A|---------------------------------------------------------------------------|
D|---------------------------------------------------------------------------|

   Gtr. 1
e|---------------------------------------------------------------------------|
B|---------------------------------------------------------------------------|
G|---------------------------------------------------------------------------|
D|---------------------------------------------------------------------------|
A|---------------------------------------------------------------------------|
D|--2-2-2-2-2-2-2-2-2-2-2-2-2-2-2-2-5-5-5-5-5-5-5-5-7-7-7-7-7-7-7-7----------|
 |                                                                           |
 | Gtr. 2                                                                    |
e|----------7---5----10---------7-----------7---5--------3------0------------|
B|---------------------------------------------------------------------------|
G|---------------------------------------------------------------------------|
D|---------------------------------------------------------------------------|
A|---------------------------------------------------------------------------|
D|---------------------------------------------------------------------------|
Related for Troubled Heart tab