Guitaretab - guitar tabs
Song name
# A B C D E F G H I J K L M N O P Q R S T U V W X Y Z

Kutless - Take Me In tab

h-hammer-on
/-slide
r-let ring


Intro: 2X


First Guitar

D|----------------------------------------------------------------------------|
A|----------------------------------------------------------------------------|
F|-----------------4--44------------------------------------3r--------3r------|
C|-----------------------8/6------------4/6-6---------------------------------|
G|--------------6-------------666-----------------2--------------4------------|
D|-----------4--------------------0-0------------0-------2-2----2-------------|

Second guitar
[ Tab from: http://www.guitaretab.com/k/kutless/178266.html ]
D|-----4r---------------------------------------------4r---------------------|
A|-4h7r-------------------------------------------4h7r------------------------|
F|----------------------------------------------------------------------------|
C|----------------------------------------------------------------------------|
G|----------------------------------------------------------------------------|
D|----------------------------------------------------------------------------|


First Guitar

D|----------------------------------------------------------------------------|
A|----------------------------------------------------------------------------|
F|------------1-----------3---------------------------------------------------|
C|----------------------------------------------------------------------------|
G|---444----------------4-----------------------------------------------------|
D|-------00----------0h2------------------------------------------------------|


Second guitar

D|---------------------------------------------------------------------------|
A|-----------4r------4r-------------------------------------------------------|
F|----------------------------------------------------------------------------|
C|----------------------------------------------------------------------------|
G|----------------------------------------------------------------------------|
D|----------------------------------------------------------------------------|
Related for Take Me In tab