Guitaretab - guitar tabs
Song name
# A B C D E F G H I J K L M N O P Q R S T U V W X Y Z

Kutless - The Disease And The Cure tab

The disease and the cure from the Kutless album, to Know that youre alive.
Guitar 1-drop C (CGCFAD) Low to high
Guitar 2-drop C (CGCFAD)

Intro
Guitar 1
D|-------------------------------------|---------------------------------------|
A|-------------------------------------|---------------------------------------|
F|-7-7-7-7-7-7-7-7-10101010-12-12-12-12|-9-9-9-9-9-9-9-9-10101010-12-12-12-12--|
C|-X-X-X-X-X-X-X-X-X-X-X-X--X--X--X--X-|-X-X-X-X-X-X-X-X-X-X-X-X---X--X--X--X--|
G|-5-5-5-5-5-5-5-5-8-8-8-8--10-10-10-10|-7-7-7-7-7-7-7-7-8-8-8-8-10-10-10-10--|
C|-------------------------------------|---------------------------------------|

Verse:
Guitar 1
D|-------------------------------------|---------------------------------------|
A|-------------------------------------|---------------------------------------|
F|-7-7-7-7-7-7-7-7-10101010-12-12-12-12|-9-9-9-9-9-9-9-9-10101010-12-12-12-12--|
C|-X-X-X-X-X-X-X-X-X-X-X-X--X--X--X--X-|-X-X-X-X-X-X-X-X-X-X-X-X---X--X--X--X--|
G|-5-5-5-5-5-5-5-5-8-8-8-8--10-10-10-10|-7-7-7-7-7-7-7-7-8-8-8-8-10-10-10-10--|
C|-------------------------------------|---------------------------------------|
  
  Guitar 2
     P.M--------|   P.M---|   P.M----|   P.M----------|
D|------------------------------------|---------------------------------------|
A|------------------------------------|10---------------13---13---13--13------|
F|-7--------------10-------12---------|-X-------------------------------------|
C|-X---------------X--------X---------|-7-7-7-7-7-7-7-7-10-X-10-X-10X-10------|
G|-5-5-5-5-5-5-5-5-8-8-8-8-10-10-10-10|---------------------------------------|
C|------------------------------------|---------------------------------------|
 
    Guitar 1
D|-------------------------------------|---------------------------------------|
A|-------------------------------------|---------------------------------------|
F|-7-7-7-7-7-7-7-7-10101010-12-12-12-12|-9-9-9-9-9-9-9-9-10101010-12-12-12-12--|
C|-X-X-X-X-X-X-X-X-X-X-X-X--X--X--X--X-|-X-X-X-X-X-X-X-X-X-X-X-X---X--X--X--X--|
G|-5-5-5-5-5-5-5-5-8-8-8-8--10-10-10-10|-7-7-7-7-7-7-7-7-8-8-8-8-10-10-10-10--|
C|-------------------------------------|---------------------------------------|

D|-----------------|
A|-----------------|
F|-----------------|
C|-----------------|
G|-----------------|
C|-7-5-3-0-5-3-2-0-|
 
 
    Guitar 2
     P.M--------|   P.M---|   P.M----|   P.M----------|
D|------------------------------------|---------------------------------------|
A|------------------------------------|10-------------------------------------|
F|-7--------------10-------12---------|-X----------------10--10--10--10-------|
C|-X---------------X--------X---------|-7-7-7-7-7-7-7-7-----------------------|
G|-5-5-5-5-5-5-5-5-8-8-8-8-10-10-10-10|---------------------------------------|
C|------------------------------------|---------------------------------------|



Pre-Chorus
Both guitars

D|---------------------------|-------------------------------|
A|---------------------------|-------------------------------|
F|---------------------------|-------------------------------|play two times on the
C|-0--3--0-0-----------------|-0--3--0-0---------------------|second time playing it add 
G|-0--3--0-0--5-4-3-0-5-4-3-0|-0--3--0-0--5-4-3-0-5-4-3-0----|two muted notes at the end 
C|-0--3--0-0-----------------|-0--3--0-0---------------------|

Chorus
Both guitars
[ Tab from: http://www.guitaretab.com/k/kutless/179572.html ]
D|---------------------------|---------------------------|
A|---------------------------|---------------------------|
F|--------------5--5-5-------|-7-7-7-7-7-7-5--5-5--------|
C|-3-3-0--0-0-0-5--5-5-5--5-5|-7-7-7-7-7-7-5--5-5-5--5-5-|
G|-3-3-0--0-0-0-3--3-3-5--5-5|-5-5-5-5-5-5-3--3-3-5--5-5-|
C|-3-3-0--0-0-0--------5--5-5|--------------------5--5-5-|

D|------------------------------------------------------|
A|------------------------------------------------------|
F|-7-7-7-7-7-7-7-7-7-7-7-7------------------------------|
C|-X-X-X-X-X-X-X-X-X-X-X-X-3--3-3-3-3-3-X-X-X-X-X-X-X-X-|
G|-5-5-5-5-5-5-5-5-5-5-5-5-3--3-3-3-3-3-X-X-X-X-X-X-X-X-|
C|-------------------------3--3-3-3-3-3-X-X-X-X-X-X-X-X|

D|---------------------------|---------------------------|
A|---------------------------|---------------------------|
F|--------------5--5-5-------|-7-7-7-7-7-7-5--5-5--------|
C|-3-3-0--0-0-0-5--5-5-5--5-5|-7-7-7-7-7-7-5--5-5-5--5-5-|
G|-3-3-0--0-0-0-3--3-3-5--5-5|-5-5-5-5-5-5-3--3-3-5--5-5-|
C|-3-3-0--0-0-0--------5--5-5|--------------------5--5-5-|

D|------------------------------------------------------|
A|------------------------------------------------------|
F|-7-7-7-7-7-7-7-7-7-7-7-7------------------------------|
C|-X-X-X-X-X-X-X-X-X-X-X-X-3--3-3-3-3-3-7-7-7-7-7-7-7-7-|
G|-5-5-5-5-5-5-5-5-5-5-5-5-3--3-3-3-3-3-X-X-X-X-X-X-X-X-|
C|-------------------------3--3-3-3-3-3-7-7-7-77-7-7-7-|

Soft Bridge
Guitar 1
D|------------------------------|------------------------------10---12--13-----|
A|------------------------------|---------------------------------10-----------|
F|------------------------------|----------------------------------------------|
C|-0----------------------------|----------------------------------------------|
G|-0----------------------------|----------------------------------------------|
C|-0----------------------------|----------------------------------------------|

Guitar 2
D|------------------------------|---------------------------------------------|
A|--------------------------10--|----------------10----13-13h15---------------|
F|-----------------------10-----|-------------10----10------------------------|
C|-0----------------------------|---------------------------------------------|
G|-0----------------------------|---------------------------------------------|
G|-0----------------------------|---------------------------------------------|

Guitar 1

D|----------------|  The rest of that part goes something like that but the voice
A|------------15--|  drowns the guitars out.  He uses many volume swells too.
F|---------13-----|
C|----------------|
G|----------------|
C|----------------|

Guitar 2
C|----------------|
A|-----10---------|
F|--10----10------|
C|----------------|
G|----------------|
C|----------------|

Heavy bridge 
At first guitar 1 plays this but the next time around both do.
     P.M.-|  P.M   P.M.  P.M.   P.M.    P.M.
C|---------------------------------------------------------------------------|
A|---------------------------------------------------------------------------|
F|---------------------------------------------------------------------------|
C|-0-------------------------------------------------------------------------|
G|-0------------3h5---6---5---3h5--------------------------------------------|
C|-0--0-0-3h5-0-----0---0---0----0-6/-5/-0-3h5ph3p5--------------------------|


Order
Intro x1
Verse x1
Pre-Chorus x 2
Chorus x 1
Verse x 2
Pre-chorus x 2
Chorus x 1
Soft Bridge x1
Heavy Bridge x6
Chorus x1
Pre-Chorus x2
Related for The Disease And The Cure tab