Guitaretab - guitar tabs
Song name
# A B C D E F G H I J K L M N O P Q R S T U V W X Y Z

Kutless - Push Me Away tab

Push me away-Kutless from the hearts of the innocent album
tuning is drop Db or drop D tuned down half a step


Intro
Guitar 1
THE WHOLE INTRO IS IN HARMONICS
eb|-12-12-------12-12-------12--12--|-12-12----12-12-----12-12-------|
Bb|-------12-12-------12-12---1212-|--------------------------------|
Gb|---------------------------------|--------------------------------|
Db|---------------------------------|-------7-7------7-7-------7-----|
Ab|---------------------------------|--------------------------------|
Db|---------------------------------|--------------------------------|

Guitar 2
NOT IN HARMONICS
eb|---------------------------------|--------------------------------|
Bb|---------------------------------|--------------------------------|
Gb|-9-9-9-9-9-9-9-9-9-9-9-9-9-9-9-9-|-9-9-9-9-9-9-9-9-9-9-9-9-9-9-9-9|
Db|-9-9-9-9-9-9-9-9-9-9-9-9-9-9-9-9-|-7-7-7-7-7-7-7-7-7-7-7-7-7-7-7-7|
Ab|-7-7-7-7-7-7-7-7-7-7-7-7-7-7-7-7-|-7-7-7-7-7-77-7-7-7-7-7-7-7-7-7|
Db|---------------------------------|-7-7-7-7-7-7-7-7-7-7-7-7-7-7-7-7|

Intro (continued)
eb|-12-12-----12-12------12-----------------------|
Bb|----------------------------7-7--7-7--7-7--7-7-|
Gb|-------7-7-------7-7-----7--7-7--7-7--7-7--7-7-|
Db|-----------------------------------------------|
Ab|-----------------------------------------------|
Db|-----------------------------------------------|

eb|-----------------------------------------------|
Bb|-----------------------------------------------|
Gb|-7-7-7-7-7-7-7-7-7-7-7-7-7-7-7-7-7-7-7-7-7-7-7-|
Db|-7-7-7-7-7-7-7-7-7-7-7-7-7-7-7-7-7-7-7-7-7-7-7-|
Ab|-5-5-5-5-5-5-5-5-5-5-5-5-5-5-5-5-5-5-5-5-5-5-5-|
Db|-----------------------------------------------|

Verse
Both guitars
This is basically the same thing as the intro just without the harmonics
eb|---------------------------------|--------------------------------|
Bb|---------------------------------|--------------------------------|
Gb|-9-9-9-9-9-9-9-9-9-9-9-9-9-9-9-9-|-9-9-9-9-9-9-9-9-9-9-9-9-9-9-9-9|
Db|-9-9-9-9-9-9-9-9-9-9-9-9-9-9-9-9-|-7-7-7-7-7-7-7-7-7-7-7-7-7-7-7-7|
Ab|-7-7-7-7-7-7-7-7-7-7-7-7-7-7-7-7-|-7-7-7-7-7-77-7-7-7-7-7-7-7-7-7|
Db|---------------------------------|-7-7-7-7-7-7-7-7-7-7-7-7-7-7-7-7|

eb|-----------------------------------------------|
Bb|-----------------------------------------------|
Gb|-7-7-7-7-7-7-7-7-7-7-7-7-7-7-7-7-7-7-7-7-7-7-7-|
Db|-7-7-7-7-7-7-7-7-7-7-7-7-7-7-7-7-7-7-7-7-7-7-7-|
Ab|-5-5-5-5-5-5-5-5-5-5-5-5-5-5-5-5-5-5-5-5-5-5-5-|
Db|-----------------------------------------------|

Pre-Chours
Both Guitars
eb|-------------------------------------------------------------------------|
Bb|---------------------------------8-8-8-8-8-8-8-8-10-10-10-10-12-12-12-12-|
Gb|-5-5-5-5-5-5-5-5-7-7-7-7-7-7-7-7-7-7-7-7-7-7-7-7--9--9--9--9-10-10-10-10-|
Db|-5-5-5-5-5-5-5-5-7-7-7-7-7-7-7-7-5-5-5-5-5-5-5-5--7--7--7--7--9--9--9--9-|
Ab|-3-3-3-3-3-3-3-3-5-5-5-5-5-5-5-5-----------------------------------------|
Db|-------------------------------------------------------------------------|

eb|---------------------------------|
Bb|---------------------------------|
Gb|-5-5-5-5-5-5-5-5-7-7-7-7-7-7-7-7-|
Db|-5-5-5-5-5-5-5-5-7-7-7-7-7-7-7-7-|
Ab|-3-3-3-3-3-3-3-3-5-5-5-5-5-5-5-5-|
Db|---------------------------------|


Chorus
Guitar 1
eb|-----------------------------------------------------------------------------|
Bb|-----------------------------------------------------------------------------|
Gb|-----------------------------------------------------------------------------|
Db|-2-2-2----2-5-5-2---2-0-0-0-0-7-7-7-7--2-2-2----2-5-5-2----2-0-0-0-0-7-7-7-7-|
Ab|-2-2---2----5-5---2---0-0-0-0-7-7-7-7--2-2---2----5-5---2----0-0-0-0-7-7-7-7-|
Db|-2-2--------5-5-------0-0-0-0-7-7-7-7--2-2--------5-5--------0-0-0-0-7-7-7-7-|

eb|--------------------------------------------------------------------------------------|
Bb|--------------------------------------------------------------------------------------|
Gb|--------------------------------------------------------------------------------------|
Db|-2-2-2----2-5-5-2----2-0-0-0-0-7-7-7-7-10-10-10-10-10-10-10-10-12-12-12-12-12-12-12-12|
Ab|-2-2---2----5-5---2----0-0-0-0-7-7-7-7-10-10-10-10-10-10-10-10-12-12-12-12-12-12-12-12|
Db|-2-2--------5-5--------0-0-0-0-7-7-7-7-10-10-10-10-10-10-10-10-12-12-12-12-12-12-12-12|

Chorus
Guitar 2
eb|-----------------------------------------------------------------------------|
Bb|-----------------------------------------------------------------------------|
Gb|-----------------------------------------------------------------------------|
Db|-2-2-2----2-5-5-2---2-0-0-0-0-7-7-7-7--2-2-2----2-5-5-2----2-0-0-0-0-7-7-7-7-|
Ab|-2-2---2----5-5---2---0-0-0-0-7-7-7-7--2-2---2----5-5---2----0-0-0-0-7-7-7-7-|
Db|-2-2--------5-5-------0-0-0-0-7-7-7-7--2-2--------5-5--------0-0-0-0-7-7-7-7-|
[ Tab from: http://www.guitaretab.com/k/kutless/180449.html ]
eb|---------------------------------------------------------------------|
Bb|---------------------------------------------------------------------|
Gb|---------------------------------------------------------------------|
Db|-2-2-2----2-5-5-2----2-0-0-0-0-7-7-7-7-9-9^7---9-9b10r-9-9^7-------9-|
Ab|-2-2---2----5-5---2----0-0-0-0-7-7-7-7-------7---------------57^9---|
Db|-2-2--------5-5--------0-0-0-0-7-7-7-7-------------------------------|

Verse 2
Guitar 1
eb|-12-12-------12-12-------12--12--|-12-12----12-12-----12-12-------|
Bb|-------12-12-------12-12---1212-|--------------------------------|
Gb|---------------------------------|--------------------------------|
Db|---------------------------------|-------7-7------7-7-------7-----|
Ab|---------------------------------|--------------------------------|
Db|---------------------------------|--------------------------------|

Guitar 2
eb|---------------------------------|--------------------------------|
Bb|---------------------------------|--------------------------------|
Gb|-9-9-9-9-9-9-9-9-9-9-9-9-9-9-9-9-|-9-9-9-9-9-9-9-9-9-9-9-9-9-9-9-9|
Db|-9-9-9-9-9-9-9-9-9-9-9-9-9-9-9-9-|-7-7-7-7-7-7-7-7-7-7-7-7-7-7-7-7|
Ab|-7-7-7-7-7-7-7-7-7-7-7-7-7-7-7-7-|-7-7-7-7-7-77-7-7-7-7-7-7-7-7-7|
Db|---------------------------------|-7-7-7-7-7-7-7-7-7-7-7-7-7-7-7-7|

Guitar 1
eb|-12-12-----12-12------12-----------------------|
Bb|----------------------------7-7--7-7--7-7--7-7-|
Gb|-------7-7-------7-7-----7--7-7--7-7--7-7--7-7-|
Db|-----------------------------------------------|
Ab|-----------------------------------------------|
Db|-----------------------------------------------|

Guitar 2
eb|-----------------------------------------------|
Bb|-----------------------------------------------|
Gb|-7-7-7-7-7-7-7-7-7-7-7-7-7-7-7-7-7-7-7-7-7-7-7-|
Db|-7-7-7-7-7-7-7-7-7-7-7-7-7-7-7-7-7-7-7-7-7-7-7-|
Ab|-5-5-5-5-5-5-5-5-5-5-5-5-5-5-5-5-5-5-5-5-5-5-5-|
Db|-----------------------------------------------|

Bridge
Guitar 1
eb|---------------------------------------------------------------------------------|
Bb|---------------------------------------------------------------------------------|
Gb|-/9-9-9-9-7----------------------12--12--12--12--14b15--12--12--12--1214^12--12-|
Db|-/x-x-x-x-x-------/9-9-9-9-7-------14--14--14--14---------14--14--14--14----14---|
Ab|-/7-7-7-7-5-------/x-x-x-x-x-----------------------------------------------------|
Db|------------------/9-9-9-9-7-----------------------------------------------------|

eb|---------------------------------------------------------------------------------|
Bb|---------------------------------------------------------------------------------|
Gb|-/9-9-9-9-7----------------------12--12--12--12--14b15--12--12--12--1214^12--12-|
Db|-/x-x-x-x-x-------/9-9-9-9-7-------14--14--14--14---------14--14--14--14----14---|
Ab|-/7-7-7-7-5-------/x-x-x-x-x-----------------------------------------------------|
Db|------------------/9-9-9-9-7-----------------------------------------------------|


eb|---------------------------------------------------------------------------------|
Bb|---------------------------------------------------------------------------------|
Gb|-/9-9-9-9-7----------------------12--12--12--12--14b15--12--12--12--1214^12--12-|
Db|-/x-x-x-x-x-------/9-9-9-9-7-------14--14--14--14---------14--14--14--14----14---|
Ab|-/7-7-7-7-5-------/x-x-x-x-x-----------------------------------------------------|
Db|------------------/9-9-9-9-7-----------------------------------------------------|

Bridge Guitar 2
eb|--------------------------------------------------------------------------------|
Bb|--------------------------------------------------------------------------------|
Gb|-/7-7-7-7-5---------------------------------------------------------------------|
Db|-/x-x-x-x-x------/9-9-9-9-7-----------------------------------------------------|
Ab|-/7-7-7-7-5------/x-x-x-x-x-----------------------------------------------------|
Db|-----------------/9-9-9-9-75h7-7-5h7-7-5h7-7-5h7-7-0-5h7-7-5h7-7-5h7-7-5h7-7-0-|

eb|--------------------------------------------------------------------------------|
Bb|--------------------------------------------------------------------------------|
Gb|-/7-7-7-7-5---------------------------------------------------------------------|
Db|-/x-x-x-x-x------/9-9-9-9-7-----------------------------------------------------|
Ab|-/7-7-7-7-5------/x-x-x-x-x-----------------------------------------------------|
Db|-----------------/9-9-9-9-75h7-7-5h7-7-5h7-7-5h7-7-0-5h7-7-5h7-7-5h7-7-5h7-7-0-|

eb|-------------------------------------------------------|
Bb|-------------------------------------------------------|
Gb|-/7-7-7-7-5--------------------------------------------|
Db|-/x-x-x-x-x------/9-9-9-9-7-------------14^12----14^12-|
Ab|-/7-7-7-7-5------/x-x-x-x-x-------------------14-------|
Db|-----------------/9-9-9-9-7---------------------------|

Outro
Both Guitars

eb|---------------------------------------|
Bb|---------------------------------------|
Gb|---------------------------------------|
Db|---------------------------------------|
Ab|-2^0^2^0-----2--2-----0---0------5--5--|
Db|---------2--2-2---5-5---5----0-0---0---|
Related for Push Me Away tab