Guitaretab - guitar tabs
Song name
# A B C D E F G H I J K L M N O P Q R S T U V W X Y Z

Kutless - I Lift My Eyes Up tab

-------------------------------------------------------------------------------
			    I Lift My Eyes Up - Kutless
-------------------------------------------------------------------------------
Tabbed by: x_invincible_x
Email: legend_invincible@yahoo.com

Tuning: Drop D

/ Slide Up
\ Slide Down
* Palm Mute

[ Tab from: http://www.guitaretab.com/k/kutless/183614.html ]
   Gtr. 1                                                 
e|---------------------------------------------------------------------------|
B|---------------------------------------------------------------------------|
G|---------------------------------------------------------------------------|
D|---------------------------------------------------------------------------|
A|---------12\10------------7/9-------------5/7---------9\5------------------|\
D|---------------------------------------------------------------------------| \
 |                                                                           |  \ 2x
 | Gtr. 2                                                                    |  /
e|---------------------------------------------------------------------------| /
B|---------------------------------------------------------------------------|/
G|---------------------------------------------------------------------------|
D|--0-0-0-0-0-0-0-0-5-5-5-5-5-5-5-5-7-7-7-7-7-7-7-7-5-5-5-5-5-5-5-5----------|
A|--0-0-0-0-0-0-0-0-5-5-5-5-5-5-5-5-7-7-7-7-7-7-7-7-5-5-5-5-5-5-5-5----------|
D|--0-0-0-0-0-0-0-0-5-5-5-5-5-5-5-5-7-7-7-7-7-7-7-7-5-5-5-5-5-5-5-5----------|
    * * * * * * * * * * * * * * * * * * * * * * * * * * * * * * * *
Related for I Lift My Eyes Up tab