Song name
# A B C D E F G H I J K L M N O P Q R S T U V W X Y Z

Kutless - More Than It Seems chords

Highlighted       Show chord diagrams
Song: More Than It Seems
Artist: Kutless
Tuning: Half-step down

sry i don't have chords for the chorus or for the bridge

Verse 1:

Em           C         G          D
Is my imagination running away or is
Em          C        G       D
All this really happening to me
Em                 C             G               D
Am I a prince in a far away land filled with fantasy

Em             C                  G                D
Where is reality and what are the actions that will define who I am
Em              C                 G                  D
I am holding onto the visions I've seen of what I could be
C
It's what I should be

Chorus:
eb----------------------------------------------------------------|
Bb----------------------------------------------------------------|
Gb----------------7-7-7-7-7-7--5-5-5-5-5-5------------------------|
Db-2-2--4--5-5-5--7-7-7-7-7-7--5-5-5-5-5-5--5-5-5--7-7-7----------|
Ab-2-2--4--5-5-5--5-5-5-5-5-5--3-3-3-3-3-3--5-5-5--7-7-7----------|
Eb-0-0--2--3-3-3----------------------------3-3-3--5-5-5----------|
More than it seems these dreams inside
Blur reality's line
If I could believe that dreams aside
I am capable of more than it seems

Verse 2:
Same pattern as first one: Em C G D

Passing through darkness into my own world will I
Be more than when I left (Be more than when I left)
Never letting fo of the lessons I learned
This will make a change
A change within me

Chorus

Bridge:
This time I won't run away
I've found the strength to face life's long days
This time I won't run away
Bridge:
eb----------------------------            ----------------------------|
Bb----------------------------            ----------------------------|
Gb-9-9-9--7-7-7--5-5-5-5-5-5-- (x3)then.. -3-3-3-3-3-3-3-3-3-3-3-3----|
Db-9-9-9--7-7-7--5-5-5-5-5-5--            -3-3-3-3-3-3-3-3-3-3-3-3----|
Ab-7-7-7--5-5-5--3-3-3-3-3-3--            -1-1-1-1-1-1-1-1-1-1-1-1----|
Eb----------------------------            ----------------------------|

Chorus

Outro:
[same pattern as chorus]

More than it seems these dreams inside
(Show me the way to these dreams)
Blur reality's line
('til theres nothing that's left of me)
If I could believe that dreams aside
(Show me the way to these dreams)
I am capable of more than it seems


'Til there's nothing left of me
Show me the way to these dreams
Tap to rate this tab
 
# A B C D E F G H I J K L M N O P Q R S T U V W X Y Z