Song name
# A B C D E F G H I J K L M N O P Q R S T U V W X Y Z

Kutless - Sleeping City To Know That Youre Alive tab

Sleeping City
[------]
[------] playm that over and over
[--7---]
[-7-7-7]
[5---5-]
[------]

X= palm mute ~=bend

To Know That You're Alive
I know this tab is very similar to all the others but i am putting this up 
to show you how my band plays it.

Intro/Verse Piano chords: Cmin Bmin Dmin D#min (play with Guitar 2)

Guitar 1
|---0---0---0---0---0---0---0---0--|
|--6-6-6-6-6-6-6-6-8-8-8-8-8-8-8-8-|
|-7---7---7---7---9---9---6---6----| x4
|----------------------------------|
|----------------------------------|
|----------------------------------|

Guitar 2
|----------------------------------|
|----------------------------------|
|----------------------------------| x4
|----------------------------------|
|-55555555555555554444444477777788-|
|----------------------------------|
  XX XX X XX XX X XX XX X XX XX X


Pre-Chorus:

GUITAR 2
|------------------------|---------------------------|
|------------------------|---------------------------|
|------------------------|---------------------------| x1.5
|-0------0-0------0------|0------0-0------0----------|
|-0------0-0------0------|0------0-0------0----------|
|-0------0-0------0------|0------0-0------0----------|

GUITAR 1
|------------------------|--------------------------]
|------------------------|--------------------------]
|------------------------|--------------------------]
|---1010~~---1010~-------|---1010~~----1010~--------]x1.5
|-----------------8-xx8~~|------------------8-xx8~~-]
|------------------------|--------------------------]

Guitar 2
[--------------------------]
[--------------------------]
[--------------------------]
[-0------0-0----0-0-0-0-xx3]
[-0------0-0----0-0-0-0-xx3]
[-0------0-0----0-0-0-0-xx3]

Guitar 1
[------------------------------]
[------------------------------]
[------------------------------]
[---1010~~-1010~10-10-10-------]
[-----------------------8-xx8\0]
[------------------------------]

Chorus:

Guitar 2
|-----------------------------------------------------------------|
|-----------------------------------------------------------------|
|-----------------------------------------------------------------| x2
|-0-------------2-3---------------10--------------8---------------|
|-0-------------2-3---------------10--------------8---------------|
|-0-------------2-3---------------10--------------8---------------|

Guitar 1                                       _____
|--------------------------------------------|     |
|--------------------------------------------|     |
|-7-7-7-7-7-7-7-9-10-10-10-10-10-10-10-10-10-|     |
|-x-x-x-x-x-x-x-x-x-x-x-x-x-x-x-x-x-x-x-x-x--|     |
|-5-5-5-5-5-5-5-7-8--8--8--8--8--8--8--8--8--|     |
|--------------------------------------------|     |
                                                    | x2
|-----------------------------------------|        |
|-----------------------------------------|        |
|-12-12-12-12-12-12-12-12-5-5-5-5-5-5-5-5-|        |
|-12-12-12-12-12-12-12-12-5-5-5-5-5-5-5-5-|        |
|-12-12-12-12-12-12-12-12-5-5-5-5-5-5-5-5-|        |
|-----------------------------------------|________|
 play all again same repeats but play the chorus twice

Bridge Part 1

Guitar 1
D|---------------------------------------------------------------|
A|---------------------------------------------------------------|
F|---------------------------------------------------------------| 
C|--------------------------------------------------------8\0----|
G|--------------------------------------------------------8\0----|
C|-0-030-0-0-030-0-0-030-0-3-0-3-5--0-030-0-0-030-0-0-030-8\0----| 
   X XXX X X XXX X X XXX X X X X X  X XXX X X XXX X X XXX
Guitar 2
D|---------------------------------------------------------------|
A|---------------------------------------------------------------|
F|---------------------------------------------------------------|
C|-----------------------------------------------------------8\0-|
G|-----------------------------------------------------------8\0-|
C|-----------------------------------------------------------8\0-|


Bridge Pt. 2:

Guitars 1 and 2
D|--------------------------------|
A|--------------------------------|
F|--------------------------------| x4
C|--------------------------------|
G|-------------------------8-10~--|
C|-0-xxx-0-0-xxx-0-0-xxx-0--------|

Outro:

Guitars 1 and 2
D|----------------------------------|------------------------------------|
A|----------------------------------|------------------------------------|
F|----------------------------------|------------------------------------|
C|----------------------------------|------------------------------------|
G|-------------------------8-10~----|-------------------------888-10~----|
C|-0-xxx-0-0-xxx-0-0-xxx-0----------|-0-xxx-0-0-xxx-0-0-xxx-0------------|

D|----------------------------------|-------------------|
A|----------------------------------|-------------------|
F|----------------------------------|-------------------|
C|----------------------------------|---------------0-0-|
G|-------------------------8-10~----|---------------0-0-|
C|-0-xxx-0-0-xxx-0-0-xxx-0----------|-0-xxx-0-0-xxx-0-0-|

Tap to rate this tab
# A B C D E F G H I J K L M N O P Q R S T U V W X Y Z