Song name
# A B C D E F G H I J K L M N O P Q R S T U V W X Y Z

Kutless - Hearts Of The Innocent tab

I couldn't find any tabs I liked for this song, so I decided to do one myself.
This is my first tab, and I'm 90% its all right.  Have fun!

Intro (x2)
----------------------------------------------------------------------------|
----------------------------------------------------------------------------|
----------------------------------------------------------------------------|
--------------33------------55------------33------------5555----------------|
--35-35-35-35---35-35-35-35---35-35-35-35---35-35-35-35------75-75----------|
----------------------------------------------------------------------------|

Verse (x2)
--------------------------------------------|
--4-2------42-------------------------------|
------3-------7-----------------------------|
--------------------45h5-8-----5555---------|
-------------------------------------75-75--|
--------------------------------------------|

Pre-chorus
----------------------------------------------------------------------------|
-9-7-11-7-9-7----9-7-12--7-9-7----9-7-11-7-9-7------------------------------|
----------------------------------------------------------------------------|
----------------------------------------------------------------------------|
----------------------------------------------------------------------------|
----------------------------------------------------------------------------|

Chorus (x2)
-------------------------------------------------------|
------------------------9-7-11-7-9-7-------------------|
-9-9-9-9-99-7-7-7-7-77-----------------------------33--|
--------------------------------------35-35-35-35------|
-------------------------------------------------------|

Chorus cont.
----------------------------------------------------------------------------|
------------------------9-7-11-7-9-7----------------------------------------|
-9-9-9-9-99-7-7-7-7-77------------------------------------------------------|
------------------------------------5555------------------------------------|
----------------------------------------75-75-------------------------------|
----------------------------------------------------------------------------|

Repeat intro once

Repeat verse & pre-chorus

Solo
---------------------------------------------------------------------|
-9\11-97-97h97h-5-33--9\11-97-97h97h5-7-9-7-11-7--5-7-9-11-13-11-9-7-|
---------------------------------------------------------------------|
---------------------------------------------------------------------|
---------------------------------------------------------------------|
---------------------------------------------------------------------|

Solo cont.
--------------------------|
5-7-9-11-13---3-5-7-9-7-5-|
--------------------------|
--------------------------|
--------------------------|
--------------------------|

Repeat chorus

Ending
---------------------------------------|
-3-5-7-9-7-5--3-5-7-9-7-5--3-5-7-9-7-5-|
---------------------------------------|
---------------------------------------|
---------------------------------------|
---------------------------------------|

h=hammer on

Hope you enjoy this!  God bless!
Tap to rate this tab
# A B C D E F G H I J K L M N O P Q R S T U V W X Y Z