Song name
# A B C D E F G H I J K L M N O P Q R S T U V W X Y Z

Kutless - Take Me In tab

The Intro and the Verse are the same thing for the lead guitar.

Lead Part: 2x Before Verse Starts in---Another 2x During Verse

E--------------------------------------------------------------------------|
B--------------------------------------------------------------------------|
G---------------------------------------------------6-------4--------------|
D-------6h7-7-6-4-----2h4-4-2-0-----4h6-6-4-2-------4-------2--------------|
A-----4-------------0-------------2-------------0-0-----2-2----------------|
E---4-------------0-------------2---------------0-0-----2-2----------------|
                                              PM---

Chorus: x1

       F#                  E
Take Me In to the Holy of Holies

        D         E            F#   D E
Take Me In by The Blood of The Lamb

        F#                 E
Take Me In to the Holy of Holies

        D              E
Take the Coal Touch my Lips Here I am


Lead Part Again: Only 1x Before going into verse, still 2x in verse.

E--------------------------------------------------------------------------|
B--------------------------------------------------------------------------|
G---------------------------------------------------6-------4--------------|
D-------6h7-7-6-4-----2h4-4-2-0-----4h6-6-4-2-------4-------2--------------|
A-----4-------------0-------------2-------------0-0-----2-2----------------|
E---4-------------0-------------2---------------0-0-----2-2----------------|
                                              PM---

Chorus: x1

        F#                 E
Take Me In to the Holy of Holies

        D          E            F#  D E
Take Me In by the Blood of the Lamb

        F#                 E
Take Me In to the Holy of Holies

         D              E
Take the Coal Touch my lips Here I Am


Lead Part x2


Chorus:x1

     F#                 E
Take Me In to the Holy of Holies

        D          E            F#  D E
Take Me In by the Blood of the Lamb

        F#                 E
Take Me In to the Holy of Holies

         D              E
Take the Coal Touch my lips Here I Am


Alternate Chorus:

     F#                 E
Take Me In to the Holy of Holies

        D          E            F#  D E
Take Me In by the Blood of the Lamb

        F#                 E
Take Me In to the Holy of Holies

         D              E          B
Take the Coal Touch my lips Here I Am

         D              E          F#
Take The Coal Touch my Lips Here I Am


Song Order:

Lead Part/Verse x4
Chorus x1
Lead Part/Verse x3
Chorus x1
Lead Part x2
Chorus x1
Alternate Chorus x1

Thanks For Reading Plz Rate!!!! Dopeydo2
Tap to rate this tab
 
# A B C D E F G H I J K L M N O P Q R S T U V W X Y Z