Song name
# A B C D E F G H I J K L M N O P Q R S T U V W X Y Z

Kutless - Better For You tab

-----------------------------------------------------------------------------
			                BETTER FOR YOU - Kutless
-----------------------------------------------------------------------------
Tuning: Standard

Verses:
e|----------------------------------------------------------------------------|
B|-2-2-2-0-0---2-0-0-2--2-2-2-0-0--2-0-0-2------------------------------------|
G|-----------2--------4-----------2--------4----------------------------------|
D|----------------------------------------------------------------------------|
A|----------------------------------------------------------------------------|
E|----------------------------------------------------------------------------|
My decision cannot be put off again, I know the right choice
but my heart is filled with dread.
e|---------------------------------------------------------------------------|
B|---3-5-5-------------------------------------------------------------------|
G|-2-------2-2-4-4-6-4-2-----------------------------------------------------|
D|---------------------------------------------------------------------------|
A|---------------------------------------------------------------------------|
E|---------------------------------------------------------------------------|
It all seems backwards in my head, my head.

Chorus:
e|-2-2-0-0-----------2-2-0-0-------------------------------------------------|
B|---------0-0-3-2-2---------0-0-3-2-2---------------------------------------|
G|---------------------------------------------------------------------------|
D|---------------------------------------------------------------------------|
A|---------------------------------------------------------------------------|
E|---------------------------------------------------------------------------|
I know it seems too wrong to be right, this way is so much harder to fight
e|-2-5-4-5-4-2-0-2-2---2-0-0---2-3-2-0-0-------------------------------------|
B|-------------------2-------0-----------------------------------------------|
G|---------------------------------------------------------------------------|
D|---------------------------------------------------------------------------|
A|---------------------------------------------------------------------------|
E|---------------------------------------------------------------------------|
but in the end I know it's true, this way is better, it's better for you.

Bridge:
e|---------------------------------------------------------------------------|
B|-------------------------------------------------------------------3-3-3-3-|
G|-0-5-4-4-0-0-2-5-4-0-0-2-4-0-5-4-4-0-0-2-4-0-0-5-4-4-4-4-2-0-2-0-0---------|
D|---------------------------------------------------------------------------|
A|---------------------------------------------------------------------------|
E|---------------------------------------------------------------------------|
Sometimes I wonder why it's this way, but when it's done
the burden is gone.  This discomfort will be taken away
as soon as it's over, it's over for me.
Tap to rate this tab
# A B C D E F G H I J K L M N O P Q R S T U V W X Y Z