Song name
# A B C D E F G H I J K L M N O P Q R S T U V W X Y Z

Kutless - Promise Of A Lifetime tab

Hey guys. This will be my second tab posted up on this website. The reason that I 
to tab this song(Kutless-Promise of a lifetime)
is because i notice there is very few or none cover or tabs/chords for this song posted 
on the internet.

*Sorry but this is ONLY the tablature for the rhythm and lead electric parts to the song.

rhythm chorus part(play a low volume distortion with high tone)+ listen to the song to 
the rhythm:
e----------------|
B----------------|
G----------------|  X2
D--2-----4--7----|
A--0--2--2--5----|
E--x--0----------|


Leads part for the second verse(clean with delay):
E--5----5-------2----2--|
B--5-------5------5--5--|
G--2--2-------2------2--|
D-----------------------|
A-----------------------|
E-----------------------|


Rhythm Bridge part(same distortion as the chorus part):
e-------------------------|
B-------------------------|
G-------------------------| x2
D--4--7--2----------------|
A--2--5--0--2-------------|
E--------x--0-------------|

Credits goes to: Tim Vue(who tab this song) and the artist(Kutless)who made this song.
Tap to rate this tab
# A B C D E F G H I J K L M N O P Q R S T U V W X Y Z