Kutless - Remember Me tab

Intro:
e|------------------------------------------------------------------------|
b|------------------------------------------------------------------------|
g|------------------------------------------------------------------------|
d|---------------------------------------------------------13----13-------|
a|-8-10-11-13-11-10--8-10-11-13-11-10-6--8-10-11-13-11-10----11-10--11-10-|
E|------------------------------------------------------------------------|

Chorus:
e|------------------------------------------------------------------------|
b|----------16--------------16-18-16-------16-------------16b------16-----|
g|-12-13-13----13-12--12-12----------13-13----13-12--12-12---13-13---13-12|
d|------------------------------------------------------------------------|
a|------------------------------------------------------------------------|
E|------------------------------------------------------------------------|

e|------------------------------------------------------------------------|
b|-------16-18-16-----16--------------------------------------------------|
g|-12-12---------13-13--13-12-12-12-12-12/13/12-12-10---------------------|
d|------------------------------------------------------8-----------------|
a|------------------------------------------------------8-----------------|
E|------------------------------------------------------6-----------------|

i am afraid that thats all my ears could pick up....i am at a loss for the verses and
bridge...but please if you can add to this or make up your own tab for this song from what
given please do so...its in the key of Eb...if i find out the bridge and verses i will 
them asap...but as for now i dont...sorry
Tap to rate this tab
 
# A B C D E F G H I J K L M N O P Q R S T U V W X Y Z