Song name
# A B C D E F G H I J K L M N O P Q R S T U V W X Y Z

Kutless - Tonight Live Form Portland tab

This tab is very similar to some other tabs but ive fine tuned this one to make it sound 
better plus, its the Live from Portland version so theres a couple a differences. This 
is my first tab so comment, rate, and enjoy:D

TUNING: Drop D
KEY:
| p - pull off
| h - hammer on
| / - slide down ( 1-12 )
| \ - slide up ( 12-1 )
| m - palm mute
| * - harmonic

GUITAR 2: INTRO
e--------------------------------------------------------------------------|
B--------------------------------------------------------------------------|
G--------------------------------------------------------------------------|
D----0---------------------0---------------0---------------------0---------|
A--------5/6---6\4---4/5-------5/6---6/8-------5/6---6\4---4/5-------------|
D--0---0-----0-----0-----0---0-----0-----0---0-----0-----0-----0-----------|

GUITAR 1: CHORUS
e--------------------------------------------------------------------------|
B--------------------------------------------------------------------------|
G--------------------------------------------------------------------------|
D--0-0-00-33-388--0-0-00-33-31111--0-0-00-33-388----003\20h20--------------|
A--0-0-00-33-388--0-0-00-33-31111--0-0-00-33-388----003\20h20--------------|
D--0-0-00-33-388--0-0-00-33-31111--0-0-00-33-388----003\20h20--------------|
                                                      m mm
***GUITAR 2 REPEAT INTRO***

GUITAR 1: VERSE
e-------------------------------------------------------|
B-------------------------------------------------------|
G-------------------------------------------------------|
D-----------00--------00--------00--------00--------5-3-|
A-----------00--------00--------00--------00--------5-3-|
D-----------00--------00--------00--------00--------5-3-|
                                m
GUITAR 1: REPEAT CHORUS
GUITAR 2: REPEAT INTRO
GUITAR 1: REPEAT VERSE

GIUTAR 1: VERSE 2
e-----------------------------------------------------------------|
B-----------------------------------------------------------------|
G-----------------------------------------------------------------|
D-50000000000000000000000000000000000000000000000000000000000000--|
A-50000000000000000000000000000000000000000000000000000000000000--|
D-50000000000000000000000000000000000000000000000000000000000000--|
   mmmmmmmmmmmmmmmmmmmmmmmmmmmmmmmmmmmmmmmmmmmmmmmmmmmmmmmmmmmmm

GUITAR 1:
e---------|
B---------|
G---------|
D-3p1h3p1-|
A-3p1h3p1-|
D-3p1h3p1-|

GUITAR 1: REPEAT CHORUS

GUITAR 2:
"Alright everybody...I'm gonna need your help right now..."
e-----------------------------------7*----|
B----------------------------------7*-----|
G-7---7------7*------7-7*---7*----7*------|
D-----------7*------7------------7*-------|
A-------------------------------7*--------|
D---------00------00----------------------|
          mm      mm            mmmmmm
                                  SLOWLY LET OFF

GUITAR 1: VERSE 3
e--------------------------------------------|
B--------------------------------------------|
G--------------------------------------------|
D--003-3-333--5-5-578-8787---003\20h20--2-2--|
A--003-3-333--5-5-578-8787---003\20h20--2-2--|
D--003-3-333--5-5-578-8787---003\20h20--2-2--|
   mm ^i know this isnt really right...^

GUITAR 1: REPEAT CHORUS

Thanks for lookin at it guys, i know it gets crapy at the end but its my first tab 
member, rate and comment!!!!
Tap to rate this tab
# A B C D E F G H I J K L M N O P Q R S T U V W X Y Z