Song name
# A B C D E F G H I J K L M N O P Q R S T U V W X Y Z

Kutless - Your Touch tab

Song:Your Touch
Band:Kutless
Album:Kutless


Whats up Kutless fans? Since the first tab of this song was really not that good of one 
decided to tab it out myself. This is my second tab my other is Amzaing Grace for bass 
so check that out to. Well I will say no more here it is.

This song not hard at all just takes some practice.

Tuning:Drop D

Key:/ Slide up or down
    ~ let ring out
    h hammer on
    I bars
Intro/Verse 0:00-0:23
G:--------------|
D:--------------|
A:--------------|
D:5--8--10--8---| 3x

Then

Pre-Chorus  0:24-0:38
G:--------------------------------------------|
D:--------------------------------------------|
A:--------------------------------------------|
D:1--3--5--8-7/-1--3--10-10-10-10-10-10-10-10-|

Then

Chorus 1    0:39-0:53
G:----------------------------------|
D:----------------------------------|
A:----------------------------------|
D:5-555555/-888-8888/333333333-333--| 2x

Then

Pre-Verse   0:54-1:01
G:------------------------------|
D:------------------------------|
A:------------------------------|
D:5--5---8--8---10--10---8--8---|

Then

Verse 2     1:02-1:17
This is played a little different than the 1st verse.

G:----------------------|
D:----------------------|
A:----------------------|
D:5--8--10-12-10-8/3-5--| 2x

Then

Pre-Chorus 2 1:18-1:31

G:---------------------------------------------|
D:---------------------------------------------|
A:---------------------------------------------|
D:1--3--5--8-/-1--3-10-10-10-10-10-10-10-10-10-|

Then

Chorus 2 1:31-1:54
G:--------------------------------|
D:--------------------------------|
A:--------------------------------|
D:5-555555-8-888888-3-333333--33--| 3x

Then

Pre-Bridge 1:55-2:08
G:-------------|
D:-------------|
A:-------------|
D:-5~--8~--3~--| 2x

Bridge 2:09-2:47
This is my second favorite part of this song.

G:-7--7-5-7-10~-I-7-7-12-10~-I-7-7-5-7-10~-I-7-12-14~-------------| 2x
D:--------------I------------I-------------I----------------------|
A:--------------I------------I-------------I----------------------|
D:--------------I------------I-------------I----------------------|

Then

Strum the note below several times

G:---|
D:---|
A:---|
D:0--|

Then

Breakdown 2:48-3:17
Play this some what fast. Easy but really fun to play.

G:------------------|
D:------------------|
A:------------------|
D:0-0-3h5--0-0-5h3--|15x

Then

Final Chorus 3:17-3:40

G:------------------------------|
D:------------------------------|
A:------------------------------|
D:5-55555-8-88888-3-3333333-33--| 3x

Outro

G:---------------------------------|
D:---------------------------------|
A:---------------------------------|
D:5-555555-8-88888-3-333333333-33--| 4x

Then end with this

G:---|
D:---|
A:---|
D:5~-|


Well Guys there it is. I'm Sure I made some rythm mistakes. If so then don't be shy and 
me know at jesusfreak_5475@yahoo.com.
Kutless rocks, but if it wasn't for Jesus I wouldn't be tabbibg this out.
Oh yeah below is the url from my other tab Amazing Grace.
Enjoy this tab, Thank you and God bless!!!

http://www.ultimate-guitar.com/tabs/h/hymnal/amazing_grace_btab.htm
Tap to rate this tab
# A B C D E F G H I J K L M N O P Q R S T U V W X Y Z