Song name
# A B C D E F G H I J K L M N O P Q R S T U V W X Y Z

Kutless - Not What You See tab

Song: Not What You See
Artist: Kutless
Album: Sea of Faces
Tuning: Drop C#

Intro:
E------------------------------------------------------------------|
B------------------------------------------------------------------|
G----------------5-5-5/7-77------------------5-5-5-5-22-2----------|
D-22x0-22x0--5-5-5/7-77---22x0-22x0--5-5-5-5-22-2------------------|
A-22x0-22x0--3-3-3/5-55---22x0-22x0--3-3-3-3-00-0------------------|
E-22x0-22x0------------------22x0-22x0-----------------------------|

Verse:
E------------------------------------------------------------------|
B------------------------------------------------------------------|
G----------------5-5-5/7-77------------------5-5-5-5-22-2----------|
D-22x0-22x0--5-5-5/7-77---22x0-22x0--5-5-5-5-22-2------------------|
A-22x0-22x0--3-3-3/5-55---22x0-22x0--3-3-3-3-00-0------------------|
E-22x0-22x0------------------22x0-22x0-----------------------------|

Chorus:
E-------------------------------------------------------------------------------------|
B-------------------------------------------------------------------------------------|
G-----------------55555--2222---------55555555--22222222--5555555---------------------|
D-2222--5555--55555--2222--(3x)--55555555--22222222--5555555--------------------------|
A-2222--5555--53333--0000---------33333333--00000000--3333333-------------------------|
E-2222--5555--------------------------------------------------------------------------|

(Verse)

(Chorus)

Bridge:
E-------------------------|
B-------------------------|
G-------------------------|
D-22x0-22x0---------------|
A-22x0-22x0--(4x)---------|
E-22x0-22x0---------------|

E---------------------------------------------------------------------------------------------------|
B----------------0000000------------------------------------------------0000000---------------------|
G-5555/--------2222222--5555-------------------------5555/--------2222222--5555555/-----------------|
D-5555/5555--2222222--5555--5555--22x022x0---5555/5555--2222222--5555555/55555550-------------------|
A-3333/5555--0000000--3333--5555--22x022x0---3333/5555--0000000--3333333/55555550-------------------|
E--------5555-----------------------5555--22x022x0----------5555--------------------------55555550--|

(Chorus 2x)
Tap to rate this tab
 
# A B C D E F G H I J K L M N O P Q R S T U V W X Y Z